Si Supieras

Jandy Feliz

Genero:

Tablatura

 La cancion es muy fácil de tocar, solo les digo que
requintos principales solo tiene 2, y son los primeros
dos que puse, el del Intro, y el primero que sale en
el primer verso, los demas son arreglos que casi no se
notan.

Puse un requinto intermedio, el cual son puros
arreglos de acompañamiento, los cuales tampoco se notan
mucho.

Intente poner todos los arreglos que escuche (puede
faltar alguno), los demas son arreglos de arpegio. Los
arreglos de requinto algunos empiezan a medio verso,
fijense en eso.

Intro:
G C
e -----------------7-8-7-8-7-8-9-10---------
B ------------------------------------------
G ---------7/9-7----------------------7--7--
D --9--10-----------------------------------
A ------------------------------------------
E ------------------------------------------

Bm C D G
e --7-8-7-8-9-10-----------------7--10-10--8---------------
B ---------------------------7/8--------------8------------
G ----------------7--7---7-9-----------------------7/9-----
D -----------------------------------------------------12--
A ---------------------------------------------------------
E ---------------------------------------------------------

G Bm7
Si supieras tu lo que tengo yo
C D
amarrado y escondido

e --0--2--3/5--3--
B --------3/5--3--
G ----------------
D ----------------
A ----------------
E ----------------

Em Em7
Si supieras tu que mi soledad
Bm7
se marcho cuando te vi.

C D
Si quisieras tu abrigar en mi
G Em
la ternura de tu cuerpo
C G
Si quisieras la dulzura

e --7--10-----
B ---------8--
G ------------
D ------------
A ------------
E ------------

Dsus4 D
de este amor.

G Bm7
Si supieras tu que ando por ahi
C D
mirando tus encuentros

e --0--2--3/5--3--
B --------3/5--3--
G ----------------
D ----------------
A ----------------
E ----------------

Em E7
Si supieras tu como convivir
Bm7
con un loco corazon.

C D
Si quisieras tu voca quiero yo
G Em
pagaria en tus adentros
C G Dsus4 D
olvidando la marcha en mi reloj.

C Bm7
Si tu quisieras ser como el agua
C Bm7 Am
para que agreges en mi vaso lo que falta
C Bm7
Si tu quisieras ser como el agua
C Bm7 Am D7
para calmar toda esta sed de madrugada.

G Bm7
Si supieras tu como vivo yo

e ---------7^8^7--
B --7-8-10--------
G ----------------
D ----------------
A ----------------
E ----------------

C
con esto por dentro
Bm7
pero no te importa

e ----------
B --7-8-10--
G ----------
D ----------
A ----------
E ----------

C
si quiera saberlo.

G Bm7
Si supieras tu como vivo yo
C
con este tormento
Bm7
pero no me mira,
C
pero estas tan lejos
G C
de poder saberlo

e ----------7-8-10--
B --8-8-------------
G ------------------
D ------------------
A ------------------
E ------------------

G C G C
de poder saberlo...de...

e --7-8-10/12-10-----7-8-8/10------------
B ----------------------------------8-8--
G --------------------------------7------
D ---------------------------------------
A ---------------------------------------
E ---------------------------------------
G C G C Bm7 G C G
Si tu supieras...

e --------7-10-10--7-8-------7/8-10-10-----7-8-10--
B ---8/10--------------8-8-------------------------
G -------------------------------------------------
D -------------------------------------------------
A -------------------------------------------------
E -------------------------------------------------

C Bm7
Si tu quisieras ser como el agua
C Bm7 Am
para que agreges en mi vaso lo que falta
C Bm7
Si tu quisieras ser como el agua
C Bm7 Am D7
para calmar toda esta sed de madrugada.

G Bm7
Si supieras tu como vivo yo
C
con esto por dentro
Bm7
pero no te importa

e ------7-8-10--
B --8-9---------
G --------------
D --------------
A --------------
E --------------

C
si quiera saberlo.

e --10/12-10--
B ------------
G ------------
D ------------
A ------------
E ------------

G Bm7
Si supieras tu como vivo yo
C
con este tormento

e -------7-8-8/10--8-8--
B --8-10----------------
G ----------------------
D ----------------------
A ----------------------
E ----------------------

Bm7
pero no me mira,

e ----------
B --8/10-8--
G ----------
D ----------
A ----------
E ----------

C
pero estas tan lejos
G C
de poder saberlo
G C
de poder saberlo...

G
Si supieras tu...

bueno si tienen una duda no duden en comunicarme y no
se duerman, que esta cancion esta fácil de sacar, no
era para que tenga ese numero de peticiones, pero eso
si, esta muy chida la rola.