Torta

Jaime Sin Tierra

Genero:

Tablatura

Intro guitarra                                    el sintetizador hace
mi:|4----5---0-----------------| X8 mi:|---------------------------| X4
B:|---------------------------| B:|3--2-----------------------|

la base es es La,LAsus y Misus


A
Con todas las manos que me cogotan,
Asus Esus
no puedo repirar.
A
Con todos sus dedos me haría una torta,
Asus Esus
para festejar.
E A
Que no me estoy yendo solo de este lugar.

e:|---------------------------| x2
B:|2--3--3--5--3--------2-----|
G:|--------------2--4-----2---|

A
Tus tristes mentiras ya no me deforman,
Asus Esus
ya no me hacen mal.
A
Con tus palbaras me haría una torta,
Asus Esus
para festejar.
E A
Que no me estoy yendo solo de este lugar.


e:|---------------------------| x2
B:|2--3--3--5--3--------2-----|
G:|--------------2--4-----2---|


e:|-4-5-4-5-4-5-4-5-4-5-4-5-4-|---------------------------|
B:|---------------------------|5-----3--------------------|
G:|---------------------------|----------------------2----|

e:|-4-5-4-5-4-5-4-5-4-5-4-5-4-|---------------------------|
B:|---------------------------|5-----3--------------/5----|
G:|---------------------------|---------------------------|


e:|----------5--4-------------|----------5--4-------------| Mezcla de lo ke hacen los violines
B:|2--0--2----------5--2------|3--2--3----------5--3------| y el sintetizador [=P]

La base de guitarra sigue siendo La - Lasus - Misus

e:|---------------------------| riff ke hace el sintetizador finalizando la cancion
B:|2-0-2-0-2-5--3-2-3-5-6-5---|



Notas
A E *LAsus *LAsus Esus No se cual de los 2 Lasus van, asi ke prueben como mas le guste.
0 0 0 0 0
0 2 0 0 0 Si no les suena muy bien usar Misus sigan usando Lasus
2 2 0 2 2
2 1 2 2 2
2 0 3 3 0
0 0 0 0 0


Pase mas o menos algunas de las bases de violin y sintetizador
del tema porke esta bueno tocarlos de vez en cuando con la guitarra

la web de jaime sin tierra es www.eltechodemicuarto.com
Pagina y banda muy recomendables.