Kili

Jaime Sin Tierra

Genero:

Tablatura

Kili

C: 010230
Fmaj7: 012230
F: 112331
G: 330023


Intro: C Fmaj7

C
Y si el avión se cae
Fmaj7
Estarás ahí para salvarme
C
Y si me pierdo entre la gente
Fmaj7
Estarás ahí para encontrarme

F
Como quisiera que brillaras por mi
C
Otra vez
F
Como quisiera que brillaras por mi
C
Otra vez
G C
Otra vez...




1\----------8------7---------------------\
2\-----------------------10------8-------\
3\------9------9------9-------9------9-9-\
4\--10-----10-----10------10-----10------\
5\---------------------------------------\
6\---------------------------------------\


1\----------13------12------10------8------7-\--8-10-12-10-8--\
2\-------------------------------------------\
3\------9-------9-------9-------9------9-----\
4\--10------10------10------10-----10--------\
5\-------------------------------------------\
6\-------------------------------------------\




C
Y si mi corazón se rompe
Fmaj7
Estarás ahí para arreglarlo

F
Como quisiera que brillaras por mi
C
Otra vez
F
Como quisiera que brillaras por mi
C
Otra vez
G C
Otra vez..


Para Diego. Para que no estes triste

Angel_w@msn.com