Tu Vestido Blanco

Jaime Roos

Genero:

Tablatura

prestar atencion al ritmo de la mano derecha,
los acordes entran casi siempre en un contratiempo


D A
Cuanto tiempo hacía que te había olvidado
D Asus4 A
Cuando vi de nuevo tu vestido blanco
Am C C/B G
Cuanta vieja herida se me había curado
D F G
Cuando vi de nuevo
Em Am A
Tu vestido blanco, blanco


Cuanto anochecer, cielos de verano
Mirando luceros, soñando en el patio
Besos que eran risas, manos en las manos
Que sabor amargo
Tu vestido blanco, blanco


SOLO

E|-------------------------------------------------------------
B|-------------------------------------------------------5--3--
G|-----------------------4-----------------------4/2--2--------
D|--------4--------5--7-----7--5--7-----5--4--2----------------
A|--5--7-----7--5--------------------5-------------------------
E|-------------------------------------------------------------

-----------------------------------------------------
-----------------------------------------------------
-----------------------4-----------------------4/2--2
--------4--------5--7-----7--5--7-----5--4--2--------
--5--7-----7--5--------------------5-----------------
-----------------------------------------------------

--0--------0-----------0--------0--------
-----0--------0-----------0--------0-----
--------2--------2--2--------2--------2--
-----------------------------------------
-----------------------------------------
-----------------------------------------


Me quedé parado sin saber que hacer
Pude haber corrido, pude haberte hablado
Pero ya es tan tarde, por última vez
Desaparece
Tu vestido blanco


SOLO