Se Va La Murga

Jaime Roos

Genero:

Tablatura

e-|-0-0----1-0--------------------------|
b-|------3-----3-1------0-1--0~1--------|
g-|-----------------2-2----------2-0-2--|
d-|-------------------------------------|
a-|-------------------------------------|
E-|-------------------------------------

e-|-------------------------------------|
b-|----------------5-5-3-3-1--0~1-------|
g-|-4-4--4-4-2-2-1----------------2-0-2-|
d-|-------------------------------------|
a-|-------------------------------------|
E-|-------------------------------------|


e-|-3-3-3-3-3-3-3-----------------------|
b-|-1-1-1-1-1-1-1-----------------------|
g-|-------------------------------------|
d-|-------------------------------------|
a-|-------------------------------------|
E-|-------------------------------------|

Am Dm Am
Recordaron sus labios
E Am
La diferencia
E Am
Del gusto del café
Am Dm Am
\'El mundo es uno solo
E Am
Y las nostalgias
E Am
Espejismo nomás\'
Se clavó su mirada
En la leyenda
Que ordenaba en francés
\'Mis pies sobre la ruta
E pensamiento
Vuela universal\'
El viento lo entonaba
Y se acordaba
De un saludo cordial
A música inmigrante
Le preparaba
Un encuentro casual
Y así como venía
Le dio de punta
A una pelota fugaz
Flotaba aún la idea
Contradiciendo
El sentido común
De corte sensiblero
Palabra seria
Ritmo trascendental
G F E
Era una retirada
C#m Bm Am
Que al despedirse
E Am
Quiere regresar \'...
Se va se va la murga
Aunque ya nunca
Pueda decir adiós
Y a la gentil barriada
Va dedicada
Nuestra humilde canción...\'
\'Mis pies sobre la ruta
Los sentimientos
Señalan al Sur\'
El rumbo es uno solo
Y las nostalgias
Nos ayudan a andar
\'Era una retirada
Que al despedirse
Quiere regresar \'...
Se va se va la murga
Aunque ya nunca
Pueda decir adiós...

Creo que se puede mejor pero es lo mejor que la eh sacado
Aguante jaime, Vamo arriba la celeste!!