Carta A Poste Restante

Jaime Roos

Genero:

Tablatura

(intro: ver PUNTEO1 al final.)           |  xx____          _x__xx
| |||||| Dmaj7 |||||| F#m7
Dmaj7 Am7 | |||ooo o|oo||
Franca Franca ¿dónde andás en Navidades? | |||||| ||||||
Cmaj7 Em7(5omit) F#m7 [notas:B C#] | |||||| ||||||
El altiplano te robó. |
Dmaj7 Am7 | x_x___ ____xx Em7(5omit)
La flor que me has enviado de Coroico | ||||o| Am7 V |oo||| (quinto
Cmaj7 Em7(5omit) F#m7 [B C#] | |||||| |||||| traste)
con los días marchitó. | |||||o ||||||
Cm7 Gm7 | |||||| ||||||
Tus polleras se entreveran, |
Dm7 Ebmaj7 | x____x Cmaj7
se entreveran en mi cabecera, | III |o|||| (tercer
Cm7 Gm7 | |||o|| traste)
Y tus pañuelos de seda, | ||o|o|
Dm7 Ebmaj7 | ||||||
banderines de las carreteras... \________________________
\
Franca Franca ¿dónde andás en Navidades?, ¿Qué jardín te hipnotizó? \
Mis líneas esperan en poste restante tu posible migración. |
Los papeles que se vuelan, que se vuelan desde mi ventana... |
Y el cartero no aparece, no aparece y se fue la mañana. |
|
G D A Em (PUNTEO2) |
|
[Repite parte cantada. ] |
[Solos sobre G, D, A y Em. ] |
[Termina con armónicos sobre VII traste,] |
[en las cuerdas 6ª, 4ª, 3ª, 2ª y 1ª. ] |
|
comentarios, insultos, etc, a cajaboba@hotmail.com /
¯¯¯¯¯¯¯¯¯¯¯¯¯¯¯¯¯¯¯¯¯¯¯¯¯¯¯¯¯¯¯¯¯¯¯¯¯¯¯¯¯¯¯¯¯¯¯¯¯¯¯¯¯¯¯¯¯¯¯¯¯¯¯¯¯¯¯


Cm7 Gm7 Dm7 Ebmaj7
x____x _x___x xx____ xx____
III |o|o|| III o|ooo| ||||oo ||o|||
||||o| |||||| |||o|| ||||||
||o||| |||||| |||||| |||ooo
|||||| |||||| |||||| ||||||


PUNTEO1 (A. esto es una APROXIMACIÓN a lo que pasa en la intro)
(B. hay notas que van ligadas, pero no sabía cómo ponerlo)
________ _______ ________
|- | | -| | | | |- | | -| |
| | | | | | | | | | | |
® ® ® ® ® ® ® ® ® ® ® ® ·

E--2--3--0--3---2-------2----------------2-------------
B--2----------------2-------2--3--0------3-------------
G--2------------------------2--------2---2-------------
D--0------------0-----------0------------0-------------
A------------------------------------------------------
E------------------------------------------------------

________ ________ ________
|- | | -| |- | | -| |- | | -| |
| | | | | | | | | | | | |
® ® ® ® ® ® ® ® ® ® ® ® ® ·

E--2--3-----3----0-------------7--------0---2----------
B--2-----0-------------3--0----------0------2----------
G-------------------4-------------6---------2----------
D--0-------------0-------------0------------0----------
A------------------------------------------------------
E------------------------------------------------------

PUNTEO 2 (también, no es exacto...)

E--7--7--10---7--7_5----7--5-5_3---5--5-3--------------
B--8----------8--8_7-------7-7_5------5----------------
G--0---------------------------------------------------
D----------------0-------------------------------------
A----------------------------0-------------------------
E-------------------------------------0----------------


(franca franca)
E-3-3---5----5----2-2-3-2----0-0-0-0-0-0-0-0--0--------
B-3-3----3---3----3-3-3-3---3-3-3-3-3-3-3-3---2--------
G---------4--------2-2-2-2-------4-4-4-4-4-4--2--------
D------------------------------5--------------0--------
A------------------------------------------------------
E-----------------------------------0------------------