Toma Mi Mano

Jaime Murrell

Genero:

Tablatura

Hola tengo 14 años soy de P. Montt chile y espero q les guste
este gran tema...y saludos a todos mis hermanos y amigos.


Intro:


Punteo Nº1:

e|----------------------------\
B|------3---3---------3--------\
G|-----0/2---0-------0-0/2------\---------X2
D|----0-------------------------/
A|---2----------2-3------------/
E|--3-------------------------/

Punteo Nº2:


e|--3-2-0------------3-2-0------0-3-0
B|-3-----3-0--------3-----3-0--3-----
G|----------2-0----------------------
D|-----------------------------------
A|-----------------------------------
E|-----------------------------------



G Bm C G
Sé, que ha sido muy difícil tener fé,
Bm C G D
que ha sido muy difícil, creer en lo que no ves,
C D G
pues si ves entonces no sería fé.

G Bm C G
Sé, que ha sido muy difícil amar,
Bm C G D
que ha sido muy difícil sentir que no amas ya,
C D G
pues amar no es sentir sino actuar.


coro:

G D
Toma mi mano, y camina junto a mi,
C G C D
Yo he anhelado este momento, junto a ti;
G D
toma mi mano, que no ves que siempre he estado aqui,
C G
//ni un segundo me he alejado//
C D
ni un segundo me he alejado
G
de ti.

(Punteo Nº2)


G Bm C G
Sé, que cuesta mucho poder perdonar,
Bm C G D
y desgarra tu alma, y mucho mas allá
C D G
pues aún mucho mas allá me encontrarás.

G Bm C G
Sé, que no encuentras palabras por tu error,
Bm C G D
que las palabras sobran cuando habla tu corazón
C D G
pues en el Yo veo tu disposición.


Coro:



punteo nª2 X4




Bien ahi esta espero q este bien aunq no se si esta 100% correcta

(por si acaso es 100% sacada por mi) =)

Saludos Chau...