Pon Aceite En Mi Vida

Jaime Murrell

Genero:

Tablatura

Hola, la versión que está actualmente en el archivo de lacuerda
Tiene unos errores de acordes, y le faltaba el intro.
Espero la disfruten y que el Eterno les siga bendiciendo.


Intro: (Guitarra utilizando bajo) *2 veces*

e |---------------------|-----------|
B |---------------------|--------0--|
G |---------------------|----0------|
D |-2--1---0------0--1--|-2---------|
A |-----------2---------|-----------|
E |---------------------|-----------|

e |---------------------|------------------------------|
B |---------------------|-----0------------------------|
G |---------------------|--0----2---0--------0------0--|
D |-2--1---0------0--1--|--------------2-----0------0--|
A |-----------2---------|------------------0-----0-----|
E |---------------------|------------------------------|


Estrofa:

Em7 Am7 D G
//Pon aceite en mi vida Señor, de tu fuego en mi corazón,
Em7 Am7 Bsus4 Em-F#m7 (2da vez sin F#m7)
Pon aceite en mi vida Señor, mi lámpara aviva hoy//


Coro:

D Em D Em
Y me gozaré, y me alegraré.
Am7 D G D/F# Em Am7 B7sus4 B7(#9)
El me ha vestido de lino fino, del gozo de su Salvacion.
D Em D Em
Y me gozaré, y me alegraré.
Am7 D G D/F# Em B7sus4 B7(#9) Em
Convidado he sido a las bo--o---das, a mi Rey pronto veré.