El Reina

Jaime Murrell

Genero:

Tablatura

INTRO: en guitarra (x4)

e-------17--15--13--------
B-25-25---25--25--27-25-23
G-------------------------
D-------------------------
A-------------------------
E-0-----------------------

Em G
Vamos a pelear, contra las fuerzas del mal
D Em
para liberar, nuestra nacion [bis]
Em G
Iglesia de Jesus no esperes mas,
D Em
toma tus armas, ven a pelear [bis]


Mas lento
C D Am B
Al enemigo hoy vencemos, en el nombrte de Jesús
Em D C Am B
somos el ejercito de Dios, nada nos podrá detener

Em D C Am B
//. Porque el reina, el reina, el reina con poder.//

se repite todo 2 veces

SOLO BAJO: (slap)

G---19-19-19-17slide19---------------- ---19--110--310-
D---------------------19slide17slide19 ----------------
A-17---------------------------------- (X3) -17--18---19----
E------------------------------------- ----------------

FINAL: Porque el reina... (x5)