Corazón De Silicón

Jaime Lopez

Genero: Pop

Tablatura

Intro: Riff, G#dim, Gdim, F#dim, E, A, B

E
Un hombre, una mujer
G#m
No puede pasarse la vida
C#m
Con el rostro en un plato
B
Lavándolo todos los días
F#m
Con las canijas ganas
B
Encaneciéndole el alma
A
Se te pudre si te aguantas

E
Porque un hombre, una mujer
G#m
No puede pasársela a obscuras
C#m
Sosteniendo un plumero
B
Sobándole el polvo a la tumba
F#m
Con tacos taquicárdicos
B
Cigarro, tras cigarro
A
Haciéndole cola al matasanos

E
No puede uno latir
G#m
Con un corazón desechable
C#m
Ni reunir sentimientos
B
En válvulas no retornables
F#m
Te salen zopilotes
B
En el baldío lote
A
No te azotes que hay chayotes

E
Se puede uno morir
G#m
Parchando mujeres inflables
C#m
E inundando los sueños
B C, C#, D
Con semen de supergalanes

E
Fumándome el ego te espero
C#m
Desde este profundo sillón
B
Corazón de silicón

-- Solo sax -- E, G#m, C#m, B, F#m, B, A

E
Simón, sí un hombre, una mujer
G#m
No puede pasarse la vida
C#m
Con el rostro en un plato
B
Lavándolo todos los días
F#m
¿Qué le va uno a hacer?
B
Doctor apúrese pues
A
¿Qué me receta usted?

E
The anwser my friend
A B G#dim, Gdim, F#dim, E
Is´t blowin in T.V.



Riff

E-----4----------5-----------7------------------11------I
B--5-----5----7-----7-----9------9-----9----12------12--I
G-------------------------------------------------------I
D-------------------------------------------------------I
A-------------------------------------------------------I
E-------------------------------------------------------I


E------9-------------7--------7---5-------5---4---------I
B--10-----10-----9-------9------------7----------5------I
G-------------------------------------------------------I
D-------------------------------------------------------I
A-------------------------------------------------------I
E-------------------------------------------------------I


ACORDES

G#dim Gdim F#dim
E----5-----4------3-----I
B----4-----3------2-----I
G----5-----4------3-----I
D----4-----3------2-----I
A----X-----X------X-----I
E----X-----X------X-----I