Tu Carcel

Jaime La Musike

Genero:

Tablatura

Intro:

B:----------------------12-17-17-13-15-15-13-12---8-10-12-15-15-12-13-13-12-10
G:-9/12-12--11-9---9-12--------------------------------------------------------

B:10-10-10-10/12-10-8-8-10-12-8p10p12-8p9p11-7p8p10
G:

G5
Te vas amor,
B5
Si así lo quieres que puedo yo hacer.
C5 G5#
Tu vanidad no te deja entender,
G5
que en la pobreza se sabe querer.

G5
Quiero llorar y me destroza que pienses así.
B5 C5
Y mas que ahora me quede sin ti,
G5# G5
Me duele lo que tu vas a sufrir.
Riff:

e:-8-----8-----8---8-----8-----8---
B:---8-8---8-8---8---8-8---8-8---8

Pero recuerda, e:-10-----10-----10---10-----10-----10---
B:----8-8----8-8----8----8-8----8-8-----8
Nadie es perfecto y tu lo veras.
Todo el riff x2
Mas de mil cosas mejores tendrás,

Pero cariño sincero jamás.



Vete olvidando,

Esto que hoy dejas y que cambiaras.

Por la aventura que tu ya veras,

Será tu cárcel y nunca saldrás.

e:7-7-7-8-8-8-10-10 (X2)


G5
Te vas amor,
B5
Si así lo quieres que puedo yo hacer.
C5 G5#
Tu vanidad no te deja entender,
G5
que en la pobreza se sabe querer.

G5
Quiero llorar y me destroza que pienses así.
B5 C5
Y mas que ahora me quede sin ti,
G5# G5
Me duele lo que tu vas a sufrir.

Riff:

e:-8-----8-----8---8-----8-----8---
B:---8-8---8-8---8---8-8---8-8---8

Pero recuerda, e:-10-----10-----10---10-----10-----10---
B:----8-8----8-8----8----8-8----8-8-----8
Nadie es perfecto y tu lo veras.
Todo el riff x2
Mas de mil cosas mejores tendrás,

Pero cariño sincero jamás.



Vete olvidando,

Esto que hoy dejas y que cambiaras.

Por la aventura que tu ya veras,

Será tu cárcel y nunca saldrás.
Riff:

e:-8-----8-----8---8-----8-----8---
B:---8-8---8-8---8---8-8---8-8---8

Pero recuerda, e:-10-----10-----10---10-----10-----10---
B:----8-8----8-8----8----8-8----8-8-----8
Nadie es perfecto y tu lo veras.
Todo el riff x2
Mas de mil cosas mejores tendrás,

Pero cariño sincero jamás.



Vete olvidando,

Esto que hoy dejas y que cambiaras.

Por la aventura que tu ya veras,

Será tu cárcel y nunca saldrás.


Intro:

B:----------------------12-17-17-13-15-15-13-12---8-10-12-15-15-12-13-13-12-10
G:-9/12-12--11-9---9-12--------------------------------------------------------

B:10-10-10-10/12-10-8-8-10-12-8p10p12-8p9p11-7p8p10
G:


C5-C5