Las Alas De Mi Libertad

Jaime Kohen

Genero: Pop

Tablatura

Esta cacion se la dedico a mi mejor amiga
TKM Lety Bff.


Intro:

aqui el Em se construye asi:

Em C6 D9 Em7

E 0 E x E x E 0
A x A 3 A 5 A 2
D x D 2 D 4 B 2
G 4 G 0 G 0 G 0
B 5 B 3 B 3 B 3
E 2 E 0 E 0 E 0

Em C6
E -0----------------------------------------------------------
A ----------------------------------------------3-------------
D -------------------------------------------------2----------
G ---4--------4------4-----5------4------4--------------0-----
B ------5---5------5-----4-----5-------5--------3----3------0-
e --------3------3-----3-----3-------3------------------------

Em D
E -0------------------------------------------------------------
A --------------------------------------------------------------
D ----------------------------------------------0--------------- x2
G ---4--------4------4-----5------4------4---------------2------
B ------5---5------5-----4-----5-------5---------------3--------
e --------3------3-----3-----3-------3----------2--3-2------0-2-

En esta parte el Em se toca normal


C6
Ya perdi de vista tu camino
Em
Se siente tan incierto mi destino
G
No queda ya nada asegurado
D
Me siento extrañamente tan confiado

C6
Nada cambiará lo que te amo
Em
No lo negaré cuanto te extraño
G
Sin embargo hoy se que el ajejarnos
D
Era lo que había que hacer

C Em
Dejarnos atrás
G
No es fracasar
D9
Y aquel amor es también soltar

C6 Em
Y yo ya, dejaré de llorar de esperar
G D
Mejor voy a confiar en lo que será
C6 Em G
Y me rendiré, al aceptar me voy a desapegar
D
Y volaré en las alas de mi libertad

Se repite el intro o se toca ( Em C Em D )

C6
Se siente tan ligero el sonido
Em
Mi respiración y mis latidos
G
Me siento bien guiado y dirigido
D
Aun que hoy no le capte el sentido

C6
La felicidad es mi camino
Em
Esa es la razón de mi destino
G
Si vas a compartirlo aqui conmigo
D
Es por que tenía que ser

C Em
Dejarnos atrás
G
No es fracasar
D9
Y aquel amor es también soltar

C6 Em
Y yo ya, dejaré de llorar de esperar
G D
Mejor voy a confiar en lo que será
C6 E G
Y me rendiré, al aceptar me voy a desapegar
D Em C
Y volaré en las alas de mi libertad

C6 D
Y aun que me pese el alma
C6 D
Por esta decisión
C6 D
Y aun que se quebra mi corazón
C6 D
Se que esto es lo mejor
C6 D Em C6 D Em7
Dejémonos por AMOR.... uuuuuuuuuuuuuu

C6 Em
Y yo ya dejaré de llorar de esperar
G D9 Em E7
Mejor voy a confiar en lo que será... haaaaa