Señor Prohibicionista

Jaime Guevara

Genero:

Tablatura

Esta canción la saque según la versión
en vivo desde el aéreoplano, todas las
demás se le parecen mucho, cualquier
petición o duda pueden hacerle con
confianza a mi mail (jaja).


G - G# - A
Después de vivir algunos años.
Riff 1 Riff 2
Todos saben que el mundo entero, es una sola prohibición
Riff 1 Riff 2
Todos saben que el mundo entero, es una sola prohibición
Riff 3 Riff 4
Prohíbe lo que no conviene, a su antigua represión
Riff 1 Riff 2
Oiga señor prohibicionista por miedo le obedeceré
Riff 1 Riff 2
Mis pantalones tengo abajo, mis manos arriba pondré
Riff 3 Riff 4
Tan solo una cosa le pido, que me escuche usted bien.


Riff 5
Prohíbame mi pelo
Riff 6
Prohíbame blue jean
Riff 5
Prohíbame ser joven
Riff 6
Prohíbame vivir
Riff 7
Prohíbame usted todo
Riff 6
lo que se pueda imaginar
Riff 8
pero no me prohíba, nunca no y no cantar

A7
si rompe mi guitarra la remendare,
A7b - A7
si me mata usted desde mi tumba cantare
Riff 2 Riff 1
oiga señor prohibicionista, prohíba todo lo demás
Riff 2 A
oiga señor prohibicionista, prohíba todo lo demás
Riff 3 Riff 4 E
pero no me prohíba, nunca no y no cantar


Interludio

^ v ^ v ^ ^ v ^ v ^ v ^ v ^
e|--8-8-8-8-8----------------10-10-10-10-8-8-8-8-8-------------------|
B|--7-7-7-7-7-----------------9--9--9--9-7-7-7-7-7-------------------|
G|-------------------------------------------------------------------|
D|-------------------------------------------------------------------|
A|-------------7-7-9-7-------------------------------7-7-9-7-10-7-7--|
E|----------- -5-5-5-5--x4---------------------------5-5-5-5-5--5-5--|




Prohíbame mi pelo
Prohíbame blue jean
Prohíbame ser flaco
Prohíbame vivir
Prohíbame usted todo
lo que se pueda imaginar
pero no me prohíba, nunca no y no cantar


A7
si rompe mi guitarra la remendare,
A7b - A7
si me mata usted desde mi tumba cantare
Riff 2 Riff 1
oiga señor prohibicionista, prohíba todo lo demás
Riff 2 A
oiga señor prohibicionista, prohíba todo lo demás
Riff 3 Riff 4
pero no me prohíba, nunca no y no y no y no y no
E A
y no y no y no y no y no y no y no y no cantar


Riff 1
e|-------------------------------------|
B|-------------------------------------|
G|-------------------------------------|
D|-------------------------------------|
A|-7-7-9-7--7-7-9-7--7-7-9-7--7-7-9-7--|
E|-5-5-5-5--5-5-5-5--5-5-5-5--5-5-5-5--|
A

Riff 2
e|--------------------------------------|
B|--------------------------------------|
G|--------------------------------------|
D|-7-7-9-7-10-7-9-7---7-7-9-7-10-7-9-7--|
A|-5-5-5-5-5--5-5-5---5-5-5-5-5--5-5-5--|
E|--------------------------------------|
D


Riff 3
e|--------------------------|
B|--------------------------|
G|--------------------------|
D|-9-9-11-9-12-9-11-9----7--|
A|-5-5-5--5-5--5-5--5----5--|
E|--------------------------|
E D

Riff 4
e|--------------------------------------|
B|--------------------------------------|
G|--------------------------------------|
D|--------------------------------------|
A|-7-7-9-7-10-7-9-7---7-7-9-7-10-7-9-7--|
E|-5-5-5-5-5--5-5-5---5-5-5-5-5--5-5-5--|
A


Riff 5
e|-----------------|
B|-----------------|
G|------5----------|
D|-2-2--5--0-2--2--|
A|-2-2--0--2-2--2--|
E|-0-0-----3-0--0--|
E E A G E E



Riff 7
e|------3----------|
B|-3-3--3-----3-3--|
G|-2-2--2-----2-2--|
D|-0-0--0--0--0-0--|
A|---------2-------|
E|---------3-------|
D D D4 G D D


Riff 8
e|-----------------2-------------------------------|
B|-----------------3-------------------------------|
G|-----------------2-------------------------------|
D|-2-2-2-2-2-2-2---0----------------------2-2-2-2--|
A|-2-2-2-2-2-2-2-------7-7-9-7--7-7-9-7---2-2-2-2--|
E|-0-0-0-0-0-0-0-------5-5-5-5--5-5-5-5---0-0-0-0--|
E D A E



E A D G B E
A 5 7 7 6 5 5
A7 5 7 5 6 5 5
A7b 4 6 4 5 4 4
E 0 2 2 1 0 0