Tu Amigo Fiel

Jaf

Album: Hombre de blues
Genero: Pop

Tablatura (Ver letra)

Esta trancripcion esta en LA
Tonalidad original:LA#

F#m C#7
Cuando estes perdida
FA#m/LA C#7 F#m
bajo un cielo triste y gris
Bm7 D/MI E A D/LA A
y nada, nada te vaya bien
G#dimm C#7
Pon tu pensamiento en mi
FA#m/LA C#7 F#m
y nombrame sin mas
Bm7 C#m7 D/MI E7
recuerda siempre tendras mi amistad

A E/LA
Llamame, buscame
D/MI Bm7 D/MI
y al lugar que quieras ire
A D/MI E
a tu lado estare
A Amaj7
Todo lo que tienes que hacer
D F#m A7
es sentir que no te olvide
Dmaj7 C#m7 Bm7 D/MI
soy tu amigo
A
tu amigo fiel

Cuando estes vencida
y no encuentres paz
mira dentro tuyo y me encontraras
piensa otra vez en mi
y pronto llegare
tu lo sabes soy tu amigo fiel

Llamame, buscame
y al lugar que quieras ire
a tu lado estare
Todo lo que tienes que hacer
es sentir que no te olvide
soy tu amigo tu amigo fiel

G D/MI
Ya sabes que en mi alma tienes lugar
A Amaj7
un cuerpo donde arribar
D/MI G7
en medio de lo incierto
F#m B7
tu sabes como encontrarme
D/MI E
tu ya lo sabes

ACORDES:

F#M/LA G#dimm

1---2----------- 1----X----------
2---2----------- 2----3----------
3---2----------- 3----4----------
4---X----------- 4----4----------
5---0----------- 5----X----------
6---X----------- 6----4----------

Dmaj7 Amaj7

1---2------------ 1---0------------
2---2------------ 2---2------------
3---2------------ 3---1------------
4---0------------ 4---2------------
5---X------------ 5---0------------
6---X------------ 6---X------------

AGUANTE JAF!!
BATIANDRES@HOTMAIL.COM