Para Que Nadie Me Vea

Jaf

Genero:

Tablatura

Intro

E|---------------------------------------------------------------------|
B|---------------------------------------------------------------------|
G|---------------------------------------------------------------------|
D|-----------2-0--2-0-------------2-0--0-2------------2-0---2-0----0-2-|
A|-------0-2-----2----2-------0-2-----2-----------0-2-----2------2-----|
E|-000-3----------------000-3---------------000-3----------------------|

Base en A

E|------------|
B|------------|
G|------------|
D|-2-2--4-4---|
A|-0-0--0-0---|
E|------------|

Riff 1
E#79
E|------------------------------|
B|----8-----8----8-----8-----8--|
G|----7-----7----7-----7-----7--|
D|----6-----6----6-----6-----6--|
A|----7-----7----7-----7-----7--|
E|-00----00---00----00----00----|


Riff 2
A5 D#79 A5 C5 A5 D5 A
E|--------------------------------------|
B|----------6------------------------2--|
G|----2-----5----2----5----2----7----2--|
D|----2-----4----2----5----2----7----2--|
A|----0-----5----0----3----0----5----0--|
E|--------------------------------------|


Riff 3

E|----------------------|
B|----------------------|
G|----------------------|
D|----------------------|
A|-2-2--4-4--2-2--4-4---|
E|-0-0--0-0--0-0--0-0---|




Con la base
Mi nena ha cruzado la linea

Nunca mas la he vuelto a ver

Se marcho muy confundida

Y no se si sabra volver
D5 C5 D7
Voy a prender la luz
A5
Para que pueda regresar
Riff 1
Como deseo que vuelva a mi
Riff 2
La extraño sin parar
F#m E A
La recuerdo a mi lado bajo el sol
F#m D A
Nos mirábamos para hablar de nuestro amor
Riff 3
Hoy camino cuando llueve
A D A
Para que nadie pueda verme llorar

Para que nadie me vea

Solo ( tocar desde el comienzo todo de nuevo )

F#m E A
La recuerdo a mi lado bajo el sol
F#m D A
Nos mirábamos para hablar de nuestro amor
Riff 3
Hoy camino cuando llueve
A D A
Para que nadie pueda verme llorar

Para que nadie me vea, nene

Con la base
Mi nena ha cruzado la linea

Nunca mas la he vuelto a ver

Se marcho muy confundida

Y no se si sabra volver
D5 C5 D7
Voy a prender la luz
A5
Para que pueda regresar
Riff 1
Como deseo que vuelva a mi
Riff 2
La extraño sin parar


Solo con base solo en la hasta el final