Mi Blues

Jaf

Genero:

Tablatura

Acordes:

Em A G C Bsus4 B7 D
E|--0-----0---3---0-----2------2----2--|
B|--0-----2---0---1-----5------4----3--|
G|--0-----2---0---0-----4------2----2--|
D|--2-----2---0---2-----4------4-------|
A|--2-----0---2---3-----2------2-------|
E|--0---------3------------------------|

Intro

E|-0---------0--0--0-
B|-0---------0--2--0-
G|-0---------0--2--0- 2 veces
D|-2---------2--2--2-
A|-2---------2--0--2-
E|-0--00000000-----0-


Riff 1
E|---------------0-
B|---------------0-
G|-------------0-0-
D|---------0-----2-
A|-0--1--2---2---2-
E|---------------0-

* Los acordes con asterisco tocar de la siguiente manera:
Alternando pua a gran velocidad sobre las cuerdas de cada acorde

A G G#
E|-9-----7---8---|
B|-10----8---9---|
G|-9-----7---8---|
D|---------------|
A|---------------|
E|---------------|


Em G A
He trabajado duro
A G Em
Por mi tierra y por mi
Em G A
He respetado todo

Lo que me han pedido si
C
Pero parece muy poco
Bsus4 B7
Es el valor que le dan aquí
A (arpegiado) A
A quien
Rif 1 Intro
Solo es un hombre de blues
Em G A
Solidario a la rutina
A G Em
Viene prendido el dolor
Em G A
Y es que no tiene otra cosa

Quien trabaja de sol a sol
C
No me parece mal caso
Bsus4 B7
Cargar tan pesada cruz
A (arpegiado) A
Si al fin
Rif 1 Intro 1 vez
Puedo cantarles mi blues
A (*)
Nadie me conoce
G G(*) Sol G# A (*)
Soy solo un esclavo mas

Nadie ha escuchado mi voz
Em D
Pero aunque un dia me vaya
C B Em
Algun otro cantara mi blues


Solo


Repite estribillo