Maravillosa Esta Noche

Jaf

Genero: Pop

Tablatura (Ver letra)

TABLATURA:
1)-----------------------------------------------------------------
2)-------10h11---10---8---10--------10h11---10---8-----------------
3)---7-------------------------7---------------------9-------------
4)-----------------------------------------------------------------
5)-----------------------------------------------------------------
6)-----------------------------------------------------------------

1)-----------------------------------------------------------------
2)-------10h11---10---8---10-----------8---8h10---8----------------
3)---7-------------------------7---9-------------------------------
4)-----------------------------------------------------------------
5)-----------------------------------------------------------------
6)-----------------------------------------------------------------



INTRO: G D C D

G D
ES TARDE A LA NOCHE
C D
ELLA BUSCA QUE VESTIR
G D C D
DESPUES SE MAQUILLA Y PEINA SU LARGO PELO
C D G D Em
Y ME PREGUNTA..¿ME VEO BIEN?
C D G D C D
LE DIGO SÌ, ESTAS MARAVILLOSA HOY
G D
VAMOS A LA FIESTA
C D
Y TODOS GIRAN PARA VER
G D C D
A ESTA HERMOSA DAMA QUE CAMINA JUNTO A MI
C D G D Em
Y ME PREGUNTA..¿TE SIENTES BIEN?
C D G
LE DIGO SÌ, ESTOY MARAVILLOSO HOY
C
ME SIENTO MUY BIEN
D G D E
PUES VEO EL AMOR EN SUS OJOS HOY
C D
Y LO GRANDE, LO MEJOR
C D G D C D
ES QUE AUN NO SE DA CUENTA CUANTO LA AMO
G D
TIEMPO DEL RETORNO
C D
FINJO MALESTAR, LE DOY
G D
LAS LLAVES DEL AUTO
C D
ME AYUDA A IR A LA CAMA
C D G D E
Y ENTONCES DIGO,MIENTRAS APAGO LA LUZ
C D G
DIGO QUERIDA ESTAS MARAVILLOSA HOY
C D G
OH MY DARLING YOU WERE WONDERFUL TONIGHT



Hola bue...yo trataba de mejorar un poco los acordes...pero esta bien
esta es mi version...espero que les guste...ami me parece que sonará
bien asi...dedicada al amor que espero con muchas ancias...
mi eme:mamertitokorn2@live.com.ar