Hasta Que Den Las Seis

Jaf

Genero: Pop

Tablatura

G|----------------------------|
D|----------------------------| (Intro x12)
A|------------5--7-7----5-----|
E|--0--0-5-7-------5-7--7-5-0-|

(Espere toda la semana............)
G|----------------------------|
D|------------5--7-7----5-----| (x2)
A|--0--0-5-7-------5-7--7-5-0-|
E|----------------------------|

G|----------------------------|
D|----------------------------| (x2)
A|------------5--7-7----5-----|
E|--0--0-5-7-------5-7--7-5-0-|

(Tengo mis botas relucientes............)
G|----------------------------|
D|------------5--7-7----5-----| (x2)
A|--0--0-5-7-------5-7--7-5-0-|
E|----------------------------|

G|----------------------------|
D|----------------------------| (x2)
A|------------5--7-7----5-----|
E|--0--0-5-7-------5-7--7-5-0-|

(Ven conmigo esta noche..................)
G|----------------------------|
D|----------------9--7--------|
A|----------7-10-----9--------|
E|-7--7-10------------7-7-6-5-|

(Quedate conmigo esta noche..............)
G|--------------------------------|
D|--------------------------------|
A|--------5-7--5----------5-7--5--|
E|-5--5-7-------7-5--5-7-------7-0|

G|--------------------------------|
D|--------------------------------| (x2)
A|------------5--7-7----5---------|
E|--0--0-5-7-------5-7--7-5-0-----|

(Tengo más que una reina..................)
G|------------------------------------------------------------------|
D|------------------------------------------------------------------|
A|-----------------4444444444444444----------------7777777777777777-|
E|-4444444444444444----------------5555555555555555-----------------|

(Dime nena que me dirás que si...................)
G|-----------------------------------------------------------|
D|-----------------------------------------------------------|
A|-----------------4444444444444444----------------2222222222|
E|-4444444444444444----------------5555555555555555----------|

(Durante el solo de guitarra)
G|------------------------------|
D|------------------------------| (x10)
A|------------5--7-7----5-------|
E|--0--0-5-7-------5-7--7-5-0---|
-------------------------------------------------------------------------
Dedicado a mi novia Jimena Carragal.
Cualquier duda, sugerencia, consulta, pedido o insulto haganmelo llegar a:
lisandrolandeta@hotmail.com.ar