El Gato

Jaf

Genero: Pop

Tablatura

A5                                  RIFF1
Viernes a la noche y no soportas mas
A5 RIFF1
Ropas de oficina, de uniformidad
A5 RIFF1
Desnuda ante el espejo sabes la verdad
A5 RIFF1
Que esta noche el polvo por ti volvera

D DSUS4 D A5
Si tuviera el mundo en mis manos
D DSUS4 D A5
pronto lo pondria a tus pies
D G D A5
dejame tenerte esta noche
RIFF2
hasta el amanecer
RIFF1
toda la noche hasta el amanecer

Agujas clavan su tac en mi sien
Un gran tajo en el tubo me permite ver
redes alucinantes que elevan mi presion local
y dos botones sueltos me terminan de enloquecer

Si tuviera el mundo en mis manos
pronto lo pondria a tus pies
dejame tenerte esta noche
hasta el amanecer
toda la noche hasta el amanecer

Solo (C#5 B5 E5)

Pasea como un gato en medio del salon
y sabe que todos la miran a su alrededor
no he visto todavia felino mas mortal
hoy quiero mis colmillos en ella probar

Si tuviera el mundo en mis manos...

RIFF1

1-----------------
2-----------------
3---7---5---2-----
4---7---5---2-----
5---0---0---0-----
6-----------------

RIFF2

1----------------------------------------------
2----------------------------------------------
3------9----7----9----7----7-9----9----7----9--
4------9----7----9----7----7-9----9----7----9--
5----------------------------------------------
6---00---00---00---00---00-----00---00---00----


AGUANTE JAF!!
BATIANDRES@HOTMAIL.COM