Blues Del Adiós

Jaf

Genero:

Tablatura

Tocar riff1 4 veces + riff 2 esa es la base del tema,
Escuchar el tema para ver el tiempo

Riff 1

A5 B5 D5 G5 E5
E|---------------------|
B|----------3----------|
G|-2----4---2---0------|
D|-2----4-------0------|
A|------------------2--|
E|------------------0--|

Riff 2

A5 B5 D5 G5 B5 E5 D5 G5 A5 B5
E|-------------------------------------------|
B|----------3--------------------------------|
G|-2----4---2---0---4-----------------2---4--|
D|-2----4-------0---4--------0--------2---4--|
A|----------------------2----0---5-----------|
E|----------------------0--------3-----------|


He decidido dejarte,nena

Y espero haber hecho bien

He visto dolor en tu corazón, nena

Vi tus lagrimas, caer

El deseo cada vez mas grande

Nos hizo enloquecer, eh

Me duele la atracción, nena

Que ejerce en mi, tu piel

Si tus dedos me tocan, nena

Puedo verme enrojecer

Pero no puedo permitir, nena

Que de mi parte

Algo te haga entristecer

Solo riff1 x 4 + riff 2 x 1 Dos veces

Espero que pase pronto el tiempo, nena

Pues te extraño hoy mas que ayer

No se que podía haber pasado, nena

Y nunca lo podré saber

Pero podes estar segura, nena

Hoy hago lo que debo hacer

Final riff 1