Agua Lenta

Jaf

Genero:

Tablatura

Agua Lenta

Intro: Mix2 - Sim - Re - La - Lasus4 - La

A
Como el agua lenta

Así se va mi amor
D A Bm A E D
Llegara a la inmensidad del mar
A
Y en el ultimo instante
D A
Me dirá el adiós
A E F#m E D
después se ira para nunca regresar
A
El ultimo reflejo

De la muerte del sol
D A Bm A E D
Se parece tanto a mi dolor
A
Como una hoja seca
D A
Así de frágil me siento hoy
A E F#m E D
Una pena que me mata el corazón
E
Y con mis ultimas fuerzas
D A
Grito tu nombre mujer
E
Pero es en vano mi esfuerzo
F#m D A
No lo puedo creer
E
Y te vas de mí
Bm D
Como el agua lenta
A Asus4
Te vas de mí


Solo
E|------------------|-------------------|----------------------------|
B|-14-14-14-12------|-14-14-14-12-------|-14-14-14-14-15-14-12-------|
G|------------14-14-|-------------14-14-|----------------------14-13-|
D|------------------|-------------------|----------------------------|
A|------------------|-------------------|----------------------------|
E|------------------|-------------------|----------------------------|

E|-------------------|------------------|
B|-14-14-14-12-------|-15-15-15-14-12---|
G|-------------14-14-|---------------14-|
D|-------------------|------------------|
A|-------------------|------------------|
E|-------------------|------------------|

E|------------------------------------------------------|
B|------14-15-14----------------------------------------|
G|14-16----------16-14-13-14-13----------13-14-13-------|
D|------------------------------16-14-16----------14/16-|
A|------------------------------------------------------|
E|------------------------------------------------------|









Consultas y/o correcciones leospanu@datafull.com