A Las Dos De La Catedral

Jaf

Genero:

Tablatura

A las dos de la catedral

Acordes:
A5 D5 C5 E5
E|-----------------|
B|------3----------|
G|-2----2---5------|
D|-2----0---5---2--|
A|-0--------3---2--|
E|--------------0--|

Intro
E|----------------------------------------------------|
B|----------------------------------------------------|
G|-----2----0----2--------------2----0----2-----------|
D|-----2----0----2-5-4-2-0------2----0----2-5-4-2-0---|
A|-0-0----0----0------------0-0----0----0-------------|
E|----------------------------------------------------|

D5
Hoy paso a buscarte
D5
Por el mismo lugar
D5
A las dos en punto
D5 intro
De la catedral
D5
Ya va una semana
D5
Que no te puedo ver
D5
Necesito amarte, nena
D5 intro
Ya no aguanto mas
C5
Quiero que me esperes
C5 D5 C5 intro
En el mismo lugar
C5
A las dos en punto
C5 D5 C5 intro
De la catedral
D5
Apresurado estoy
D5
Quiero salir
D5
Ya nada me detiene
D5 intro
Quiero toda la pista para mi
D5
Ruge el seis cilindros
D5
Truena sin cesar
D5
Voy a besar tus labios, nena

D5 intro
A toda velocidad
C5
Quiero que me esperes
C5 D5 C5 intro
En el mismo lugar
C5
A las dos en punto
C5 D5 C5 E5
De la catedral

Intro y solo

D5
Pocas cuadras quedan
D5
Para volverte a ver
D5
Y el amor inminente
D5 intro
Enciende poco a poco mi piel
D5
Por fin la ultima esquina
D5
Comienzo a doblar
D5
Escucho al mismo tiempo
D5 intro
Las campanadas de la catedral
C5
Quiero que me esperes
C5 D5 C5 Intro
En el mismo lugar
C5
A las dos en punto
C5 D5 C5
De la catedral

Correcciones y/o consultas leospanu@datafull.com