Corre Gonzalez

Jackie Y Los Ciclones

Genero:

Tablatura

Intro: C-A-F-E-F-E-F-E-F-F#-G
e|-----------------------------------------|
B|-----------------------------------------|
G|-----------------------------------------|
D|--------------------------2--------2-----|
A|------2--3--3----2--3--5-----5--5--------|
E|---5----------------------------------5--|

e|---------------------------------------------------------3--2-|
B|-------------------------------------------------------0----0-|
G|-----------------------------------------------------0------0-|
D|---------------------------------------------------0--------0-|
A|-------------------------------------------------2----------2-|
E|---5--5--2--3--2--5--3--1----0-1-0-1-0-1-2-3---3------------3-|

VERSOS:
C
Ven a bailar y corre gonzalez
A
bailemos juntos el rock
F
el ritmo que nos sale
G
tan feliz del corazon.

(SIGUE IGUAL)
Y veras que a mi lado
te hundiras como yo
si no te quitan lo bailado
que no sea rock and roll.

(ESTRIBILLO IGUAL QUE LOS VERSOS)
Corre gonzalez
yo tambien quiero rock
corre gonzelez
ya empieza el rock and roll

Y veras que a mi lado
te hundiras como yo
si no te quitan lo bailado
que no sea rock and roll. [AAAUUU!!!!!!]

Solo: C-A-F-G X2

C A F G
LALALA LALALALALALALALA LALALALALALALALA LALALALALALALALAAAAA

Ven a bailar gonzalez
bailemos juntos el rock
el ritmo que nos sale
tan feliz del corazon.

Corre gonzalez
yo tambien quiero rock
corre gonzalez
ya empieza el rock and roll

C#
Y veras que a mi lado
A#
muy corrido bailaras
F#
si no le quitan lo bailado
C#
que no sea rock and roo oo oo ooll!!!!