Niños Del Mundo

Jacinto Piedra

Genero:

Tablatura

Intro:
C C-G7 C Am Am F F Am G7 (2 veces)


C E7 Am
Niños del mundo quieren ver la paz
C G7 C G7
y no escuchar de los hombres
C E7 Am
quieren crecer en libertad tal vez
C G7 C G7
y escapar de las armas.


C E7 Am
Miren sus ojos para ver
C G7
cansancio de las cosas
C G7
que verán acontecer.


C Am
Ahí están sin jugar
F
saben lo del mundo actual
C G7
hoy los niños del mundo
C G7
quieren paz. (bis)


Intro


Miren sus ojos para ver
cansancio de las cosas
que verán acontecer.

Ahí están sin jugar
saben lo del mundo actual
hoy los niños del mundo
quieren paz.(bis)



Junto al Intro:

E|-0------1--0-----0---------------------------------|
B|-----3--------3------1---0---3---1----0---1--------|
G|---------------------------------------------2--0--|
D|---------------------------------------------------|
A|---------------------------------------------------|
E|---------------------------------------------------|


E|-0-0-0-0-0-0-0---0-3-----0---3--0-------------------------------|
B|----------------------3-------------3---1----0--3--1---0-1------|
G|------------------------------------------------------------2-0-|
D|----------------------------------------------------------------|
A|----------------------------------------------------------------|
E|----------------------------------------------------------------|