El Buen Lugar

Jacinto Piedra

Genero:

Tablatura

Se Comienza la canción arpegiando

Em C B
E|---------7------------------8--------------7------
B|-----------8--------------8---8----------7---7----
G|------9------9----------9-------9------8-------8--
D|----9---------------------------------------------
A|--7-----------------------------------------------
E|-------------------8----------------7-------------


Em Am B
E|---------7------------------5--------------7------
B|-----------8--------------5---5----------7---7----
G|------9------9----------5-------5------8-------8--
D|----9---------------------------------------------
A|--7-----------------------------------------------
E|-------------------5----------------7-------------





Em C B
Como la magia donde está
Em Am B
la sorpresa que da el pensar
Em Am B
yo, sigo tras de esa ilusión
C B Em
que me brinda el cantar.
Em Am B
Triste o alegre es el grito
Em C B
Si este lleva el compromiso

Em Am B
de defender mi tierra
C B Em
su gente y su mirar.
Em F#m D
Que guarden la miseria
Bm Am
que dan por mi trabajo
B Em
yo soy carnero a sueldo
F#m D Em
vivo de mis manos


[interludio]Em Am C Em x2

Em Am B
Hombre es el que trabaja
Em C B
lejos de la violencia
Em Am B
Deben parar la sangre
C B Em
y mirar las estrellas.
Em C B
Juntos no nos separemos
Bm C
hay que sembrar la tierra
B Em
esa es la gran riqueza
G D Em
del futuro hermano


[interludio]Em Am C Em x2


Em Am B
Al avaro lo va a matar
Em C B
la canción de los pueblos
Em Am B
de esos que el sol alumbra
C B Em
con la vida en los techos.
Em C B
Van a cambiar los tiempos
Bm Dm C
los hijos que han nacido
B Em
ellos son el futuro
Am Em
nuevo de este mundo


[interludio]Em Am C Em x2

AgustinBiasini7