Para Tu Mirar

Jacha Mallku

Genero:

Tablatura

ESTA CANCIÓN SE LA DEDICO A UNA MUJER... CUYA MIRADA HERMOSA SIEMPRE QUEDARÁ
GRABADA EN MI MENTE... VERÓNICA...

Intro:
E --------------------------------------------------------------------------
B -3-3-5--5s7-7-5-5--3-3-5--5s7-7-5-5--3-3-5--5s7-7-5-5--3-3-5--5s7-7-5-5---
G -2-2-4--4s6-6-4-4--2-2-4--4s6-6-4-4--2-2-4--4s6-6-4-4--2-2-4--4s6-6-4-4---
D --------------------------------------------------------------------------
A --------------------------------------------------------------------------
E --------------------------------------------------------------------------

D C Bm A# D
E -2-2-0-0------------------------------------------------------------------
B ---------3-3---0-0--------------------------------------------------------
G ---------------------3-3-------2-2----------------------------------------
D --------------------------------------------------------------------------
A --------------------------------------------------------------------------
E --------------------------------------------------------------------------

Em A D B7 Em A
E -2-2-0-2-3---5-5--2-0-----2-2-0-2-3--5-5-3-2-0----------------------------
B ----------------------3---------------------------------------------------
G --------------------------------------------------------------------------
D --------------------------------------------------------------------------
A --------------------------------------------------------------------------
E --------------------------------------------------------------------------

D B7 Em
Tus ojos me dicen cosas que nunca pudiste hablar
A D
Me miran sonriendo talvez pretendiendo amores
B7 Em A D
Me miran sonriendo talvez pretendiendo amores

D A D B7 Em
Tus ojos son perlas que en el fondo de mi corazón
A D
Conservo en un cofre cual tesoro de mi ensueño
B7 Em A D
Conservo en un cofre cual tesoro de mi ensueño

A D
Bella fuente de pasión he bebido de tu mirada
A D
Cristalinas ilusiones que apagaron mi sed de amor
B7 Em Gm D
Cristalinas ilusiones que apagaron mi sed de amor

D A D B7 Em
A A A A A A A A A A A A A A A
A D
A A A A A A A A A A A A A A
B7 Em Gm D
Cristalinas ilusiones que apagaron mi sed de amor

(SE REPITE TODO DESDE EL PRINCIPIO)