Morenada Del Amor

Jacha Mallku

Genero:

Tablatura

Intro:
(arpegio)
se repite 2 veces

Am C Dm E Am
|--0-----0-----0-----0-----0-----1-----0-----0-----0--|
|--1-----1-----1-----1-----1-----3-----3-----0-----1--|
|--2-----2-----2-----2-----0-----2-----2-----1-----2--|
|--2-----2-----2-----2-----2-----0-----3-----2-----2--|
|--0-----0-----0-----0-----3-----0-----2-----2-----0--|
|--0-----3-----2-----1-----0-----0-----0-----0-----0--|


después del arpegio
|-------------------------|
|-11-0--------------------|
|------2-0---00-----------|
|----------2----2-0-------|
|-------------------3-0---|
|-------------------------|



Am C
Si tu comprendieras que siento al mirarte
F Dm E Am
no podrías negar ansias de amarme


Am C
Si en cielo tuviera un acto radiante
F Dm E Am
Para comparar mi amor constante


Dm G C
Nunca supo mi voz palabras bellas
F Dm E Am
Como las que te cante usando estrellas


En la quena
G C
G C
F D
F D





Su bajeo antes de entrar a ReM


|-----------------------------|
|-----------------------------|
|---------------0-2-0---------|
|-0---0-2-4-2-4-------4-2-0---|
|---4-------------------------|
|-----------------------------|


|--------------|
|--------------|
|--------------|
|--4-2-0-2-4---|
|--------------|
|--------------|

B tu comprendieras.....




para todos los amantes de la musica nacional y los fanaticos de jach\'a mallku
ah............ si decean mas temas escribirme a
cristian_lujan7@hotmail.com o cristian_97989@hotmail.com
chau.....................