Total Ingravidez

Jabon Blue

Genero:

Tablatura

A / C#m / F#m / D (D-Bm)


A
Entrar, salir, llorar, reír,
C#m
estar, no estar, pensar, pensar...
F#m
quién soy, quién fui, qué será de mí
D
a solas, a ciegas, todo caras nuevas


A
Meneo, rebusco, encuentro lo que busco,
C#m
recular no reculo, de eso ni hablar
F#m
Provoco el revuelo, caracoleo,
D (D-E)
y pa dentro, me la juego


F#m C#m D
Ser y no valer es como estar
(como molestar)
F#m C#m
No me lo puedo creer,
D-D-C#m-Bm-A-E
alcancé...
una total ingravidez


e|--------------------------------12h14p12h14p12h14p12--------|
B|-13b--13b--11h13p11h13p11h13p11-----------------------------|
G|------------------------------------------------------------|
D|------------------------------------------------------------|
A|------------------------------------------------------------|
E|------------------------------------------------------------|


A
Bajar, subir, saber sufrir,
C#m
Hablar, no hablar, tocar, tocar
F#m
Suave, despacio, muy lento
D
entran los cinco latinos en movimiento


A
Insisto, resisto, qué burro tan listo!
C#m
qué pena tan grande, pero es lo que hay
F#m
lo siento, ahora no puedo,
Bm D E
qué suerte la mía saber esperar...


F#m C#m D
Ser y no valer es como estar
(como molestar)
F#m C#m
No me lo puedo creer,
D-D-C#m-Bm-A-E
alcancé...
una total ingravidez


F#m C#m D
Ser y no valer es como estar
(como molestar)
F#m C#m
No me lo puedo creer,
D-D-C#m-Bm-A-E
alcancé...
una total ingravidez


e|------------9----------------9------------
B|-10------12---12-9~-------12---12-10------
G|----9--------------(9)---------------11---
D|------------------------------------------
A|------------------------------------------
E|------------------------------------------

--------------10--10-10-12-10-9-------------|
--12b14-12-10-------------------12-10----10-|
--------------------------------------------|
--------------------------------------------|
--------------------------------------------|
--------------------------------------------|

e|----9----------------9------------------------10--10-10-12-10-9-------|
B|-12---12-9~-------12---12-10------12b14-12-10-------------------12-10-|
G|-----------(9)---------------11---------------------------------------|
D|----------------------------------------------------------------------|
A|----------------------------------------------------------------------|
E|----------------------------------------------------------------------|


F#m C#m D
Ser y no valer es como estar
(como molestar)
F#m C#m
No me lo puedo creer,
D-D-C#m-Bm-A-E
alcancé...
una total ingravidez


F#m C#m D
Ser y no valer es como estar
(como molestar)
F#m C#m
No me lo puedo creer,
D-D-C#m-Bm-A-E
alcancé...
una total ingravidez

-------------------------------------
Dúbidas, peticións e comentarios:
mixigodo [arroba] gmail . com
-------------------------------------