Telas De Araña

Jabon Blue

Genero:

Tablatura

Intro E:        (E*)
e|-0--0--0--0--0---0----------|
B|-0--0--0--0--0---0----------|
G|-1--1--1--1--1---X----------|
D|-2--2--2--2--2---4----------|
A|-2--2--2--2--2---2----------|
E|-0--0--0--0--0---0----------|

Intro A: (Asus2)
e|-0--0--0--0--0---0----------|
B|-2--2--2--2--2---0----------|
G|-2--2--2--2--2---2----------|
D|-2--2--2--2--2---2----------|
A|-0--0--0--0--0---0----------|
E|-0--0--0--0--0---0----------|


Intro: E / A / E / A

E
Una vez más, otra más, ¿de que vas?
A
ya no es quererle a la vida...
E
Fuiste \'la niña de azul\', ahora \'peligrosa María\'

¿no lo ves?, ¿Cómo vas?
A
Como vas a ver nada si tus ojos se cierran
D C#m
criando telas de araña... telas de araña
D

A
A las niñas guapas les gustan los chicos duros
D
pa\' los malos vicios no pagar un duro
A
no las falta de nada, pero no hay futuro
E
cabalgan en burro

A
Tu madre destrozada, tu padre no te habla
D
hicieron lo imposible pero tu no te dejabas
A
perdieron a su niña, ya no pueden hacer nada
E
prefieren verte muerta... que tirada

Guitarra 1
e|-----------------------------------------------------|
B|----------------------10-----------------------------|
G|--9--------9--------9--------9--------9--------9-----| Varias
D|-----11-12----11-12-------------11-12----11-12---11--| veces
A|-----------------------------------------------------|
E|-----------------------------------------------------|

Guitarra 2
e|----------------|
B|----------------|
G|--9-------------| Varias
D|-----11--8------| veces
A|------------12--|
E|----------------|


A / D / A / D

A D
te levantas cada dia en una cama distinta
A
destrozada, humillada y te sientes una mierda
E
no hace falta que te digan que te vayas

A
La cabeza te estalla, tu mente no para
D
cada dia una batalla, un tiron, una mentira
A E
pero ya no cuela nada... arrodíllate y paga

A D - G C E
Te sientes sola, ya no puedes más...
A D - G C E
Sola, ya no puedes más...


Igual que intro: Mi / La / Mi / La

A / D

-------------------------------------
Dúbidas, peticións e comentarios:
mixigodo [arroba] gmail . com
-------------------------------------