Cacareando

Jabon Blue

Genero:

Tablatura

NOTA: El RE* es un REsus2. Es opcional, pero le da un toque
muy chulo que ya trae la canción de por si. Si os resulta

complicado, sustituidlo por un Re normal. El REsus2 sería así:

Dsus2
O|---|---|---| |-O-|---|---|
|---|---|-O-| |-O-|---|---|
|---|-O-|---| ó así |---|---|-O-|
O|---|---|---| |---|---|-O-|
X|---|---|---| |-O-|---|---|
X|---|---|---| X|---|---|---|
TRASTE: 1 2 3 5 6 7

---------------------------------------------------------------

INTRO:

D | D*-D | G | C (x4)

D
Aquí estoy
G C
voy de mal en peor
D
no levanto cabeza
G C
será por cabezón


Bm
Me voy, no sé si un día volveré
G
quizás, mi amor, quieras venir también
Bm A
Aquí solo soy un gallo, en su jaula cacareando


(esto que viene se tocaría igual que la intro)

D | D*-D
Es lo que hay
G C D | D*-D | G | C
tiene que ser es así
D D*-D
voy a curarme en salud
G C D | D*-D | G | C
sobran novias como tú Tururú!


Bm G
e|------------------------------------------------------------|
B|-7--------7-7--------7---------7-7--------------------------|
G|---9-7--------9-7------9-7---------9-7---------------7-7-6--|
D|-------9----------9--------9-----------9-------7-9-7--------|
A|-------------------------------------------10---------------|
E|------------------------------------------------------------|

e|--------------------|
B|--------------------|
G|-----------7---7-6--|
D|-----7-9-7---9------|
A|-10-----------------|
E|--------------------|

Bm A
e|-------------------------------------------------------|
B|-7--------7-7--------7---------------------------------|
G|---9-7--------9-7-------9--7-----7--9--7-------7-7--9--|
D|-------9----------9-----------9-----------7-7----------|
A|-------------------------------------------------------|
E|-------------------------------------------------------|


Re | Re*-Re
Es lo que hay
G C D | D*-D | G | C
tiene que ser es así
D D*-D
voy a curarme en salud
G C F G
sobran novias como tú, como tú...


Bm
e|----------------------------------------------------|
B|---------------------------------7-------7-7--------|
G|-----7-----7-----7-----7-----7-----9-7-------9-7----|
D|-7-9---7-9---7-9---7-9---7-9-----------9---------9--|
A|----------------------------------------------------|
E|----------------------------------------------------|

G
e|------------------------------------|
B|------------------------------------|
G|----------7-7-6------------7---7-6--|
D|----7-9-7------------7-9-7---9------|
A|-10---------------10----------------|
E|------------------------------------|

Bm
e|------------------------------------------------------|
B|-7--------7-7-----------------------------------------|
G|---9-7--------9-7----------7-----7-----7-----7-----7--|
D|-------9----------9----7-9---7-9---7-9---7-9---7-9----|
A|------------------------------------------------------|
E|------------------------------------------------------|

A
e|---------------|
B|---------------|
G|----------7-9--|
D|-7--7-7-7------|
A|---------------|
E|---------------|


Re | Re*-Re
Es lo que hay
G C D | D*-D | G | C
tiene que ser es así
D D*-D
voy a curarme en salud
G C F G
sobran novias como tú, como tú...


Bm
Me voy, no sé si un día volveré
G
quizás, mi amor, quieras venir también
Bm A
Aquí solo soy un gallo, en su jaula cacareando


F G A# C
Como tú, como tú, como tú, como tú,
G A# C G
como tú, como tú, como tú, como tú,
A# C G A#
como tú, como tú, como tú, como tú...


-------------------------------------
Dudas, peticiones y comentarios:
mixigodo [arroba] gmail . com
-------------------------------------