We Are Always Searching

I Am Ghost

Album: We Are Always Searching
Genero: Pop

Tablatura (Ver letra)

                    We Are Always Searching - I Am Ghost
----------------------------------------------------------------------------
Tabbed by: Dru

Tuning: DADGBE

[tab]Intro
Guitar 1: Distorted
e|----------------------------------------------------------------------|
B|----------------------------------------------------------------------|
G|-------------2-3p2p0-2p0----------------------------------------------|
D|xx3p0-2h3p0---------------3p2-xx-3p0-2p0-3p0------3p0------5p0--------|
A|----------------------------------------------1-1-----3-3-------------|
D|----------------------------------------------------------------------|
pm . . . .[/tab]

[tab]e|----------------------------------------------------------------------|
B|----------------------------------------------------------------------|
G|-------------5-3-2-----33333333--55555555-----------------------------|
D|xx3p0-2h3p0--------3---33333333--55555555-----------------------------|
A|-----------------------11111111--33333333-----------------------------|
D|----------------------------------------------------------------------|[/tab]
[tab] pm ........ ........
Guitar 2: Distorted
During the Second Part
e|----------------------------------------------------------------------|
B|-666--5555------------------------------------------------------------|
G|-333--3333------------------------------------------------------------|
D|----------------------------------------------------------------------|
A|----------------------------------------------------------------------|
D|----------------------------------------------------------------------|[/tab]

[tab]Chorus
Guitar 1: Distorted
e|----------------------------------------------------------------------|
B|----------------------------------------------------------------------|
G|--10101010\9999\3333/5555----10101010\9999/10101010/12121212----------|
D|--xxxxxxxxxxxxxxxxxxxxxxx----xxxxxxxxxxxxxxxxxxxxxxxxxxxxxxx----------|
A|--8888\\\\\7777\1111/3333----8888\\\\\7777/8888/////10101010----------|
D|----------------------------------------------------------------------|[/tab]

[tab]e|----------------------------------------------------------------------|
B|----------------------------------------------------------------------|
G|----------3333-5555-------------3333-5555-----------------------------|
D|0000-3333-3333-5555---0000-3333-3333-5555-----------------------------|
A|0000-3333-1111-3333---0000-3333-1111-3333-----------------------------|
D|0000-3333-------------0000-3333---------------------------------------|[/tab]

[tab]Guitar 2: Distorted
e|----------------------------------------------------------------------|
B|----------------------------------------------------------------------|
G|10101010\9999\3333/5555/10101010/12121212/14141414/17171717-----------|
D|xxxxxxxxxxxxxxxxxxxxxxxxxxxxxxxxxxxxxxxxxxxxxxxxxxxxxxxxxx------------|
A|8888\\\\\7777\1111/3333/8888////10101010/12121212/15151515------------|
D|----------------------------------------------------------------------|[/tab]

[tab]e|----------------------------------------------------------------------|
B|----------------------------------------------------------------------|
G|19191919\17171717\14141414\12121212--9/10\9--10101010\9999\3333/5555--|
D|xxxxxxxxxxxxxxxxxxxxxxxxxxxxxxxxxxx--xxxxxx--xxxxxxxxxxxxxxxxxxxxxxx--|
A|17171717\15151515\12121212\10101010--7//8\7--8888\\\\\7777\1111/3333--|
D|----------------------------------------------------------------------|[/tab]

[tab]Verse 1, 1st part
Guitar 2: Acoustic
e|----------------------------------------------------------------------|
B|--6------5------3------5----------------------------------------------|
G|-7-7----5-5----3-3----5-5---------------------------------------------|
D|----------------------------------------------------------------------|
A|----------------------------------------------------------------------|
D|----------------------------------------------------------------------|[/tab]
[tab] x2
Verse 1, 2nd part
Guitar 1: Distorted
e|--5-6p5--5----5-8p5--5---5-6p5--5-------------------------------------|
B|-6------6---6-------6---6------6---8p6-----8p6------------------------|
G|---------------------------------------8p5-----8p5--------------------|
D|----------------------------------------------------------------------|
A|----------------------------------------------------------------------|
D|----------------------------------------------------------------------|
x2
Repeat Chorus[/tab]

[tab]Post Chorus
Guitar 1: Distorted
e|----------------------------------------------------------------------|
B|----------------------------------------------------------------------|
G|----------------------------------------------------------------------|
D|--3p2p0-3p2p0-3p2p0-3p2p0---------------------------------------------|
A|----------------------------------------------------------------------|
D|----------------------------------------------------------------------|[/tab]

[tab]Guitar 2: Distorted
e|----------------------------------------------------------------------|
B|----------------------------------------------------------------------|
G|----------------------------------------------------------------------|
D|--7p5p0-7p5p0-7p5p0-7p5p0---------------------------------------------|
A|----------------------------------------------------------------------|
D|----------------------------------------------------------------------|[/tab]

[tab]Verse 2 Part 1
Guitar 1: Distorted
e|----------------------------------------------------------------------|
B|----------------------------------------------------------------------|
G|----3333-2222---------3333-2222---------3333-2222---------3333-22--5-2|
D|3333---------3333-2222---------2222-3333---------3333-2222-------33---|
A|----------------------------------------------------------------------|
D|----------------------------------------------------------------------|
pm ............................x2......................................[/tab]

[tab]Guitar 2: Distorted
e|----------------------------------------------------------------------|
B|----------------------------------------------------------------------|
G|----------------------------------------------------------------------|
D|----------------------------------------------------------------------|
A|1111111111111111-0000000000000000-1111111111111111-00000000-33333333--|
D|----------------------------------------------------------------------|
x2[/tab]

Verse 2 Part 2 is the same as in first verse
Repeat Chorus

[tab]Bridge 1
Guitar 1: Distorted
e|----------------------------------------------------------------------|
B|----------------------------------------------------------------------|
G|----------------------------------------------------------------------|
D|-0-0-0-0-00---0-0-0-0-00---0-0-0-0-00---0-0-0-0-000-------------------|
A|-0-0-0-0-00---0-0-0-0-00---0-0-0-0-00---0-0-0-0-000-------------------|
D|-0-0-0-0-00---0-0-0-0-00---0-0-0-0-00---0-0-0-0-000-------------------|
pm...................................................[/tab]

[tab]e|----------------------------------------------------------------------|
B|----------------------------------------------------------------------|
G|----------------------------------------------------------------------|
D|------------------------------------------------------------------000-|
A|------------------------------------------------------------------000-|
D|-0h7h8p7h8p7-5h7--0h5h7p5h7p5-3h5---0h7h8p7h8p7-5h7---0h5h7p5h7p5-000-|
x2 The second time add in improvised pinch harmonics pm ...[/tab]

[tab]e|------------------------11111111111111111111111111111111--------------|
B|4-4-4-4-44--4-4-4-4-44--10101010101010101010101010101010--------------|
G|2-2-2-2-22--2-2-2-2-22------------------------------------------------|
D|----------------------------------------------------------------------|
A|----------------------------------------------------------------------|
D|----------------------------------------------------------------------|[/tab]

[tab]Guitar 2: Distorted
e|----------------------------------------------------------------------|
B|4444444444444444444444444444444444444444------------------------------|
G|2222222222222222222222222222222222222222------------------------------|
D|----------------------------------------------------------------------|
A|----------------------------------------------------------------------|
D|----------------------------------------------------------------------|[/tab]
[tab] Just keep doing this until the other guitar starts doing it
Bridge 2 Part 1
Guitar 2: Acoustic
e|----------------------------------------------------------------------|
B|----------------------------------------------------------------------|
G|-------5-------------5-------------5-------------5--------------------|
D|--3-2-3-3-2-3---3-2-3-3-2-3---3-2-3-3-2-3---3-2-3-3-2-3---------------|
A|----------------------------------------------------------------------|
D|----------------------------------------------------------------------|[/tab]
[tab] x2
Bridge 2 Part 2
Guitar 1: Distorted
e|----------------------------------------------------------------------|
B|----------------------------------------------------------------------|
G|-----5-------------5-------------2-------------2h3--------------------|
D|3-2-3-3-2-3---3-2-3-3-2-3---3-2-3-3-2-3---3-2-3---3-2-3---------------|
A|----------------------------------------------------------------------|
D|----------------------------------------------------------------------|
x2[/tab]

Then Repeat the chorus twice, and you're Done

check out the band... they're incredible.
http://www.iamghostmusic.com


Key:
| / slide up
| \ slide down
| h hammer-on
| p pull-off
| x Mute note