Ship Of Pills And Needed Things

I Am Ghost

Genero: Pop

Tablatura

Song: The Ship of Pills and Needed Things
Artist: I am Ghost
Album: Lovers' Requiem
Tuning: Drop C


[tab]Intro (after Violin) 3x
|----------------------------------------------|------------------------------|
|----------------------------------------------|------------------------------|
|-------7-----8-----10-------------------------|------------------------------|
|----------------------------88888888-77777777-|-12---12---12-----650~--------|
|-6p5p0---6-6---6-6----5h6p5-88888888-77777777-|-12---12---12-----650~--------|
|----------------------------88888888-77777777-|-12---12---12-----650~--------|
: : : :[/tab]

[tab]Verse 3x
|--------------------------------|------------------------------|
|--------------------------------|------------------------------|
|--------------------------------|------------------------------|
|-000000-------000000-7h8p7------|-77777777-33333333------------|
|-000000-6p5p0-000000------8p7p0-|-77777777-33333333------------|
|-000000-------000000------------|-77777777-33333333------------|
::::: ::::::[/tab]

[tab]Pre-chorus “So kiss the girl…”
Guitar I
|---------------------------------------------|
|-12-------------14------------15-------------|
|-15-------------17------------18-------------|
|---------------------------------------------|
|---------------------------------------------|
|---------------------------------------------|[/tab]

[tab]Guitar II
|---------------------------------------------|
|---------------------------------------------|
|---------------------------------------------|
|-8~-------------10~-----------11~------------|
|-8~-------------10~-----------11~------------|
|-8~-------------10~-----------11~------------|[/tab]


[tab]Chorus
Both Guitars
|--------------------------------------------------------------|
|--------------------------------------------------------------|
|--------------------------------------------------------------|
|-------------------------8-7-5----33333333-77777777-----------|
|-5h6p5h6-8-7-5-0-5h6p5h6-------8--33333333-77777777-----------|
|----------------------------------33333333-77777777-----------|[/tab]

[tab]|--------------------------------------------------------------|
|--------------------------------------------------------------|
|----------------------------------77777777-1414141414141414---|
|-------------------------8-7-5----xxxxxxxx-x-x-x-x-x-x-x-x----|
|-5h6p5h6-8-7-5-0-5h6p5h6-------8--55555555-1212121212121212---|
|--------------------------------------------------------------|[/tab]

[tab]|--------------------------------------------------------------|
|--------------------------------------------------------------|
|--------------------------------------------------------------|
|-5-5-5-5-8-8-8-8-xxx-5-5-5-5-5-7-8-10-------------------------|
|-5-5-5-5-8-8-8-8-xxx-5-5-5-5-5-7-8-10-------------------------|
|-5-5-5-5-8-8-8-8-xxx-5-5-5-5-5-7-8-10-------------------------|[/tab]

[tab]Violin Part (Clean) “We are in Love…”
|-------------15------------------------15-17-18-20-22~--------|
|-------15-18----17-15------------15-18------------------------|
|----15----------------15------15------------------------------|
|--------------------------------------------------------------|
|--------------------------------------------------------------|
|--------------------------------------------------------------|[/tab]

Repeat Intro

[tab]Verse II 1.5x
|-----------------------------------------------------------|---------------------------|
|-----------------------------------------------------------|---------------------------|
|-----------------------------------------------------------|---------------------------|
|-0-000-000-000-000-000-------0-000-000-000-000-7h8p7-------|-77777777-33333333---------|
|-0-000-000-000-000-000-6p5p0-0-000-000-000-000-------8p7p0-|-77777777-33333333---------|
|-0-000-000-000-000-000-------0-000-000-000-000-------------|-77777777-33333333---------|
: ::: ::: ::: ::: ::: : ::: ::: ::: :::[/tab]

Repeat Pre-Chorus
Repeat Chorus

[tab]Bridge
|-------------------------------------------------------------------|
|--------------------0~---------------------------------------------|
|--------------------5~---------------------------------------------|
|-0-000-0-0--0-000-0--------0-000-0-0--0-000-0-0\-------------------|
|-0-000-0-0--0-000-0--------0-000-0-0--0-000-0-0\-------------------|
|-0-000-0-0--0-000-0--------0-000-0-0--0-000-0-0\-------------------|
: ::: : : : ::: : : ::: : : : ::: : :[/tab]

[tab]Interlude
|-------------------------------------------------------------------------------------|
|-------------------------------------------------------------------------------------|
|-------------------------------------------------------------------------------------|
|-7-3-5--2-0---7-3-5-10-0---7-3-5--2-0---7-3-5-10-0-6~-----3~-----6~-----333333333333-|
|-7-3-5--2-0---7-3-5-10-0---7-3-5--2-0---7-3-5-10-0-6~-----3~-----6~-----333333333333-|
|-7-3-5--2-0---7-3-5-10-0---7-3-5--2-0---7-3-5-10-0-6~-----3~-----6~-----333333333333-|
: : [/tab]

Repeat Chorus

[tab]Then Repeat
|--------------------------------------------------------------|
|--------------------------------------------------------------|
|--------------------------------------------------------------|
|-5-5-5-5-8-8-8-8-xxx-5-5-5-5-5-7-8-10-------------------------|
|-5-5-5-5-8-8-8-8-xxx-5-5-5-5-5-7-8-10-------------------------|
|-5-5-5-5-8-8-8-8-xxx-5-5-5-5-5-7-8-10-------------------------|[/tab]

[tab]Violin Part (Clean) “We are in Love…”
|-------------15------------------------15-17-18-20-22~--------|
|-------15-18----17-15------------15-18------------------------|
|----15----------------15------15------------------------------|
|--------------------------------------------------------------|
|--------------------------------------------------------------|
|--------------------------------------------------------------|[/tab]

[tab]Outro
|Guitar I
|---------------------------------------------------------------------------------|
|---------------------------------------------------------------------------------|
|---------------------------------------------------------------------------------|
|-0-0-------------------------------------0-0-------------------------------------|
|-0-0-------------------------------------0-0-------------------------------------|
|-0-0-------------------------------------0-0-------------------------------------|[/tab]
[tab]| : : : : |
|Guitar II |
|------------------------------------------------------------------------------|
|-----11-11-11-10-10-10--------------------11-11-11-10-10-10-------------------|
|-----------------------10-10-10-9-9-9-----------------------10-10-10-9-9-9----|
|-0-0----------------------------------0-0-------------------------------------|
|-0-0----------------------------------0-0-------------------------------------|
|-0-0----------------------------------0-0-------------------------------------|
: : : :[/tab]

[tab]|Guitar I
|---------------------------------------------------------------------------------|
|-----15-15-15-13-13-13-----------------------15-15-15-13-13-13-------------------|
|-----------------------14-14-14-12-12-12-----------------------14-14-14-12-12-12-|
|-0-0-------------------------------------0-0-------------------------------------|
|-0-0-------------------------------------0-0-------------------------------------|
|-0-0-------------------------------------0-0-------------------------------------|[/tab]
[tab]| : : : : |
|Guitar II |
|------------------------------------------------------------------------------|
|-----11-11-11-10-10-10--------------------11-11-11-10-10-10-------------------|
|-----------------------10-10-10-9-9-9-----------------------10-10-10-9-9-9----|
|-0-0----------------------------------0-0-------------------------------------|
|-0-0----------------------------------0-0-------------------------------------|
|-0-0----------------------------------0-0-------------------------------------|
: : : :[/tab]

[tab]End On
|---------------|
|---------------|
|---------------|
|-0---0---------|
|-0---0---------|
|-0---0---------|
: :[/tab]

Key:
/ slide up
\ slide down
h hammer-on
p pull-off
~ let ring
* harmonic
x Mute note
: Palm Mute

And There You Go....
*Please Rate*