Lady Madeline In Her Coffin

I Am Ghost

Album: We Are Always Searching
Genero: Pop

Tablatura (Ver letra)

Guitar 1-left earpiece
Guitar 2-Right earpiece

[tab]Guitar 1-Intro
|--------------------------------------------------|
|-----2---2-------3---3-------5---5-------3---3----|
|---2---2---2---2---2---2---2---2---2---2---2---2--|8x
|-4-----------4-----------4-----------4------------|
|--------------------------------------------------|
|--------------------------------------------------|[/tab]

[tab]Verse
|---------------------------------------------------|
|---------------------------------------------------|
|---------------------------------------------------|
|-----6---6-------6---6-------6---6-------6---6-----|-------
|---5---5---5---5---5---5---5---5---5---5---5---5---| \
|-5-----------5-----------5-----------5-------------| \[/tab]
[tab] 4x
|---------------------------------------------------| /
|---------------------------------------------------| /
|---------------------------------------------------|-------
|-----4---4-------4---4-------4---4-------4---4-----|
|---5---5---5---5---5---5---5---5---5---5---5---5---|
|-5-----------5-----------5-----------5-------------|[/tab]

[tab]Both Guitar-Chorus 1st part
|---------------------------------------------|
|---------------------------------------------|
|------1111111111---1414141414----------------|
|-4-44\-x-x-x-x-x-4\-x-x-x-x-x-0------2-------|2x
|-4-44\-9-9-9-9-9-4\1212121212-0-(6x)-2-(6x)--|
|-4-44\-----------4\-----------0------2-------|[/tab]

[tab]|------------------------------------------------|
|------------------------------------------------|
|------------------------------------------------|
|-4-------0------2------4-------0------x22x33x4~-|
|-4-(12x)-0-(6x)-2-(6x)-4-(12x)-0-(6x)-x22x33x4~-|
|-4-------0------2------4-------0------x22x33x4~-|[/tab]

Intro 6x
Verse 3x

[tab]Both Guitar-Chorus 2nd Part
|-------------------------------------------------|
|-------------------------------------------------|
|------1111111111---1414141414--------------------|
|-4-44\-x-x-x-x-x-4\-x-x-x-x-x-0------2-----xxxx--|
|-4-44\-9-9-9-9-9-4\1212121212-0-(6x)-2-(3x)xxxx--|
|-4-44\-----------4\-----------0------2-----xxxx--|[/tab]

[tab]|---------------------------------------------|
|---------------------------------------------|
|------1111111111---1414141414----------------|
|-4-44\-x-x-x-x-x-4\-x-x-x-x-x-0------2-------|
|-4-44\-9-9-9-9-9-4\1212121212-0-(6x)-2-(6x)--|
|-4-44\-----------4\-----------0------2-------|[/tab]

[tab]|---------------------------------------------|
|---------------------------------------------|
|----------------11---------------------------|2x
|-4------4------\-x-(3x)-0------0------2------|
|-4-(4x)-4-(3x)-\-9------0-(6x)-0-(4x)-2-(3x)-|
|-4------4------\--------0------0------2------|[/tab]

[tab]|---------------------------------------------|
|---------------------------------------------|
|---------------------------------------------|
|-4-------0------2------4-------0------x22x33-|
|-4-(12x)-0-(6x)-2-(6x)-4-(12x)-0-(6x)-x22x33-|
|-4-------0------2------4-------0------x22x33-|[/tab]

[tab]|---------------------------------------------|
|---------------------------------------------|
|-\11---\9---\7---\5---5h4-5------------------|
|---------------------------------------------|4x
|---------------------------------------------|
|---------------------------------------------|[/tab]

[tab]|-----------------------|
|-----------10-9--------|
|----------------11-9---|
|------9-10-------------|
|-9-12------------------|[/tab]

[tab]Guitar 2-Intro comes in after Guitar 1 play intro 4x
|----17~-16~-12~-|
|-14~------------|
|----------------|4x
|----------------|
|----------------|
|----------------|[/tab]

[tab]|------------------------------------------------------|
|-0h2-h2-h2---2h3p2h3p2h3---3h5p3h5p3h5---2h3p2h3p2h3--|
|------------------------------------------------------|
|------------------------------------------------------|4x
|------------------------------------------------------|
|------------------------------------------------------|[/tab]

chorus 1st part same as guitar 1
intro 4x
verse 5x
chorus 2nd part same as guitar 2

[tab]|----|
|----|
|----|
|-44-|3x
|-44-|
|-44-|
..[/tab]

[tab]Outro
|-----------------------|
|-----------------------|
|-----------------------|
|-4-------0------2------|play till end
|-4-(12x)-0-(6x)-2-(6x)-|
|-4-------0------2------|[/tab]