Killer Likes Candy

I Am Ghost

Genero: Pop

Tablatura

I Am Ghost - Killer Likes Candy

Tuning: Drop C (CGCFAD)

For the most part, this is a tab for the lead guitarist's part.
I left out a few of the second guitarist's parts (such as in the
endings of the Chorus).
Please rate, and feel free to comment ;)

email: Celldweller09@gmail.com

Key:
* --- Palm Mute
h --- Hammer-on
p --- Pull-off
~ --- Let note(s) ring
t --- Tremolo pick
b --- Bend
r --- Release bend


[tab]Intro (Part I x2)
(0:00)
Guitar 1
D|--------------------------------------|
A|--------------------------------------|
F|------7-9-10-9-7--------7-9-10-9-7----|
C|--0-0------------7--0-0------------7--|
G|--*-*---------------*-*---------------|
C|--------------------------------------|[/tab]

[tab]D|--------------------------------------|
A|--------------------------------------|
F|--------------------------------------|
C|--8-8-8h9-8-8-8h9--7-7-9p7------------|
G|--*-*-----*-*------*-*-----10-8-7-8---|
C|--------------------------------------|[/tab]

[tab]Guitar 2
D|--------------------------------------|
A|--------------------------------------|
F|--------------------------------------|
C|--0-0---------------0-0---------------|
G|--0-0---------------0-0---------------|
C|--0-0---------------0-0---------------|[/tab]

[tab]D|--------------------------------------|
A|--------------------------------------|
F|--------------------------------------|
C|--8-8---------------7-7---3-3---0-0---|
G|--8-8---------------7-7---3-3---0-0---|
C|--8-8---------------7-7---3-3---0-0---|[/tab]

[tab]Intro (Part II)
(0:09)
Guitar 1
D|---------------------------------------|
A|---------------------------------------|
F|---------------------------------------|
C|--0-0-12-0-8-0------0-0-12-0-8-0-------|
G|---------------9-12--------------9-12--|
C|---------------------------------------|[/tab]
[tab] x2
D|---------------------------------------|
A|---------------------------------------|
F|---------------------------------------|
C|--------------------0-5p0-7-5p0--------|
G|-----5p0-5-7p0-8~p0-------------8------|
C|---------------------------------------|[/tab]

[tab]Verse (Part I)
(0:19)
Both Guitars
D|------------------------------------------|
A|------------------------------------------|
F|------------------------------------------|
C|------------------------------------------|x2
G|------------------------------------------|
C|--55555555-55555555-88888888-3333-7777----|
******** ******** ******** **** ****[/tab]

[tab]Verse (Part II)
Guitar 1
(0:29)
D|----------------------------------------------|
A|----------------------------------------------|
F|----------------------------------------------|
C|----------------------------5-----------------|
G|-----5--7p5-5---5-7p5-5---8---h8-8---3-5p3-3--|
C|--55----------5---------5----------5----------|[/tab]
[tab] ** * * *
(0:34)
D|----------------------------------------------|
A|----------------------------------------------|
F|----------------------------------------------|
C|----------------------------5-----------------|
G|-----5--7p5-5---5-7p5-5---8---h8-8---3-5p3-3--|
C|---5----------5---------5----------5----------|
* * * *[/tab]

[tab]Chorus
(0:39)
Guitar 1
D|------------------------------------------|
A|------------------------------------------|
F|--7-77-7-7--7-77-7-7--3-33-3-3--5-55-5-5--|
C|--7-77-7-7--7-77-7-7--3-33-3-3--3-33-3-3--|
G|--5-55-5-5--5-55-5-5--1-11-1-1--3-33-3-3--|
C|------------------------------------------|[/tab]
[tab] x2
D|------------------------------------------|
A|------------------------------------------|
F|--7-77-7-7--7-77-7-7--3-33-3-3------------|
C|--7-77-7-7--7-77-7-7--3-33-3-3--7-77-7-7--|
G|--5-55-5-5--5-55-5-5--1-11-1-1--7-77-7-7--|
C|--------------------------------7-77-7-7--|[/tab]


[tab](Intro)
(0:59)
Guitar 1
D|--------------------------------------|
A|--------------------------------------|
F|------7-9-10-9-7--------7-9-10-9-7----|
C|--0-0------------7--0-0------------7--|
G|--*-*---------------*-*---------------|
C|--------------------------------------|[/tab]

[tab]D|--------------------------------------|
A|--------------------------------------|
F|--------------------------------------|
C|--8-8-8h9-8-8-8h9--7-7-9p7------------|
G|--*-*-----*-*------*-*-----10-8-7-8---|
C|--------------------------------------|[/tab]

[tab]Guitar 2
D|--------------------------------------|
A|--------------------------------------|
F|--------------------------------------|
C|--0-0---------------0-0---------------|
G|--0-0---------------0-0---------------|
C|--0-0---------------0-0---------------|[/tab]

[tab]D|--------------------------------------|
A|--------------------------------------|
F|--------------------------------------|
C|--8-8---------------7-7---3-3---0-0---|
G|--8-8---------------7-7---3-3---0-0---|
C|--8-8---------------7-7---3-3---0-0---|[/tab]

[tab]Verse 2 (Part I)
(1:04)
Both Guitars
D|------------------------------------------|
A|------------------------------------------|
F|------------------------------------------|
C|------------------------------------------|x2
G|------------------------------------------|
C|--55555555-55555555-88888888-3333-7777----|
******** ******** ******** **** ****[/tab]

[tab]Verse 2 (Part II)
Guitar 1
(1:14)
D|----------------------------------------------|
A|----------------------------------------------|
F|----------------------------------------------|
C|----------------------------5-----------------|
G|-----5--7p5-5---5-7p5-5---8---h8-8---3-5p3-3--|
C|--55----------5---------5----------5----------|[/tab]
[tab] ** * * *
(1:19)
D|----------------------------------------------|
A|----------------------------------------------|
F|----------------------------------------------|
C|----------------------------5-----------------|
G|-----5--7p5-5---5-7p5-5---8---h8-8---3-5p3-3--|
C|---5----------5---------5----------5----------|
* * * *[/tab]

[tab]Chorus 2
(1:24)
Guitar 1
D|------------------------------------------|
A|------------------------------------------|
F|--7-77-7-7--7-77-7-7--3-33-3-3--5-55-5-5--|
C|--7-77-7-7--7-77-7-7--3-33-3-3--3-33-3-3--|
G|--5-55-5-5--5-55-5-5--1-11-1-1--3-33-3-3--|
C|------------------------------------------|[/tab]
[tab] x2
D|------------------------------------------|
A|------------------------------------------|
F|--7-77-7-7--7-77-7-7--3-33-3-3------------|
C|--7-77-7-7--7-77-7-7--3-33-3-3--7-77-7-7--|
G|--5-55-5-5--5-55-5-5--1-11-1-1--7-77-7-7--|
C|--------------------------------7-77-7-7--|[/tab]

[tab]Breakdown (Part I)
(1:44)
Both Guitars
D|-----------------------------------|
A|-----------------------------------|
F|--7777--7777--7777-----------------|
C|--7777--7777--7777--5555--3-5-7~---|
G|--5555--5555--5555--5555--3-5-7~---|
C|--------------------5555--3-5-7~---|[/tab]
[tab] x2
D|-----------------------------------|
A|-----------------------------------|
F|--7777--7777--7777-----------------|
C|--7777--7777--7777--5555--3--5--7--|Don't let 3,5 and
G|--5555--5555--5555--5555--3--5--7--|7 ring at end.
C|--------------------5555--3--5--7--|[/tab]

[tab]Part II
(2:03)
D|-------------------------------------|
A|-------------------------------------|
F|--7-7-5h7-5h7-7-5h7-5h7-7-5h7-5h7-7--|
C|-------------------------------------|
G|-------------------------------------|
C|-------------------------------------|[/tab]

[tab]D|------------------------------------------|
A|------------------------------------------|
F|------------------------------------------|
C|--7-7-5h7-5h7-7-5h7-5h7-7-5h7-5h7-777777--|
G|----------------------------------777777--|
C|------------------------------------------|[/tab]

[tab]Part III
(2:13)
D|------------------------------------|
A|------------------------------------|
F|------------------------------------|
C|--0-0-8-0-0-7-0-0-5-0-0-3-0-0-2h3---|
G|--*-*---*-*---*-*---*-*---*-*-------|
C|------------------------------------|[/tab]
[tab] x2
D|------------------------------------|
A|------------------------3~~---------|
F|-----------------2~-3-5-------------|
C|-------0~-2-3-5---------------------|
G|------------------------------------|
C|------------------------------------|[/tab]

[tab]Breakdown Ending
(2:23)
D|---------------------------------------|
A|---------------------------------------|
F|--3~~~--5~~~--3~~~---------------------|
C|--3~~~--5~~~--3~~~---------------------|
G|--1~~~--3~~~--1~~~--11111111-33333333--|
C|--------------------********-********--|[/tab]

[tab]Chorus 3
(2:33)
Guitar 1
D|------------------------------------------|
A|------------------------------------------|
F|--7-77-7-7--7-77-7-7--3-33-3-3--5-55-5-5--|
C|--7-77-7-7--7-77-7-7--3-33-3-3--3-33-3-3--|
G|--5-55-5-5--5-55-5-5--1-11-1-1--3-33-3-3--|
C|------------------------------------------|[/tab]
[tab] x3
D|------------------------------------------|
A|------------------------------------------|
F|--7-77-7-7--7-77-7-7--3-33-3-3------------|
C|--7-77-7-7--7-77-7-7--3-33-3-3--7-77-7-7--|
G|--5-55-5-5--5-55-5-5--1-11-1-1--7-77-7-7--|
C|--------------------------------7-77-7-7--|[/tab]

[tab]Heavy Chorus
(3:03)
Guitar 1
D|------------------------------------------|
A|------------------------------------------|
F|--77777777--77777777--33333333--55555555--|
C|--77777777--77777777--33333333--33333333--|
G|--55555555--55555555--11111111--33333333--|
C|------------------------------------------|[/tab]

[tab]D|------15t-17t-20t-------------------|
A|--15t-------------18t-20t-20b22r----|
F|------------------------------------|
C|------------------------------------|
G|------------------------------------|
C|------------------------------------|[/tab]

[tab]Guitar 2
D|------------------------------------------|
A|------------------------------------------|
F|--77777777--77777777--33333333--55555555--|
C|--77777777--77777777--33333333--33333333--|
G|--55555555--55555555--11111111--33333333--|
C|------------------------------------------|[/tab]
[tab] x2
D|------------------------------------------|
A|------------------------------------------|
F|--77777777--77777777--33333333------------|
C|--77777777--77777777--33333333--77777777--|
G|--55555555--55555555--11111111--77777777--|
C|--------------------------------77777777--|[/tab]

[tab]Outro
(3:13)
Guitar 1
D|--------------------------------------|
A|--------------------------------------|
F|------7-9-10-9-7--------7-9-10-9-7----|
C|--0-0------------7--0-0------------7--|
G|--*-*---------------*-*---------------|
C|--------------------------------------|[/tab]
[tab] x2
D|--------------------------------------|
A|--------------------------------------|
F|--------------------------------------|
C|--8-8-8h9-8-8-8h9--7-7-9p7------------|
G|--*-*-----*-*------*-*-----10-8-7-8---|
C|--------------------------------------|[/tab]

[tab]Guitar 2
D|------------------------------------------|
A|------------------------------------------|
F|--77777777--77777777--33333333--55555555--|
C|--77777777--77777777--33333333--33333333--|
G|--55555555--55555555--11111111--33333333--|
C|------------------------------------------|[/tab]

[tab]D|---------------------------------|
A|---------------------------------|
F|--7-7---------------7-7----------|Don't let notes
C|--7-7---------------7-7----------|ring.
G|--5-5---------------5-5----------|
C|---------------------------------|[/tab]

[tab]D|---------------------------------|
A|---------------------------------|
F|--3-3----------------------------|
C|--3-3---------------7-7--3-3-----|Don't let notes
G|--1-1---------------7-7--3-3-----|ring.
C|--------------------7-7--3-3-----|[/tab]

[tab]Both Guitars
(3:23)
D|-----------------------|
A|-----------------------|
F|---------7~~~----------|
C|---------7~~~----------|
G|---------5~~~----------|
C|---------0~~~----------|[/tab]

By: Decyple (a.k.a. CellDwellin)