Dark Carnival Of The Immaculate

I Am Ghost

Genero: Pop

Tablatura

Song: Dark Carnival of the Immaculate
Artist: I am Ghost
Album: Lovers’ Requiem
Tuning: Drop C

Finally, this TAB is finished. It’s been a while, cause I got stuck
at the solo for a while. I still not 100% sure the solo’s accurate,
but it sounds like it works. If a violin part is not marked, either
there isn’t one, or it’s very similar to the guitar parts.

I am Ghost is an awesome band.

Enjoy!

[tab]Intro
Violin I (comes in at 0:04)
|-12---11-12-11---------------------------------------|
|---------------12---11-12-11-------------------------|
|-----------------------------12---11-12-11--9-11-12--|
|-----------------------------------------------------|
|-----------------------------------------------------|
|-----------------------------------------------------|[/tab]

[tab]Violin II (comes in at 0:14)
|-12.-12----12.-12----12.-12--------------------------|
|-12.-12----12.-12----12.-12--------------------------|
|-----------------------------------------------------|
|-----------------------------------------------------|
|-----------------------------------------------------|
|-----------------------------------------------------|[/tab]


[tab]Guitars I and II
|---------------------------------------------------------------------|
|---------------------------------------------------------------------|
|-1616161616161616-1515151515151515-1414141414141414-1313131313131313-|
|-x-x-x-x-x-x-x-x--x-x-x-x-x-x-x-x--x-x-x-x-x-x-x-x--x-x-x-x-x-x-x-x--|
|-1414141414141414-1313131313131313-1212121212121212-111111111111111--|
|---------------------------------------------------------------------|[/tab]

[tab]|---------------------------------------------------------------------|
|---------------------------------------------------------------------|
|-1616161616161616-1515151515151515-1414141414141414-1313131312121212-|
|-x-x-x-x-x-x-x-x--x-x-x-x-x-x-x-x--x-x-x-x-x-x-x-x--x-x-x-x-x-x-x-x--|
|-1414141414141414-1313131313131313-1212121212121212-1111111110101010-|
|---------------------------------------------------------------------|[/tab]

[tab]Violin
|-19~--------------18~--------------17~--------------16~--------------|
|---------------------------------------------------------------------|
|---------------------------------------------------------------------|
|---------------------------------------------------------------------|
|---------------------------------------------------------------------|
|---------------------------------------------------------------------|[/tab]

[tab]|-19~--------------18~--------------17~--------------16~-----15~------|
|---------------------------------------------------------------------|
|---------------------------------------------------------------------|
|---------------------------------------------------------------------|
|---------------------------------------------------------------------|
|---------------------------------------------------------------------|[/tab]


[tab]Verse
Guitars I and II
|-----------------------------------------------------------|
|-----------------------------------------------------------|
|-99---77---55--------------------99--1111--1212------------|
|-xx---xx---xx--7p0-9p0-10p0h9p0--xx--x-x---x-x-------------|
|-77---55---33--------------------77--9-9---1010------------|
|-------------------------------------------------1-1-4-2-1-|
PM| - - - [/tab]

[tab]|--------------------------------------------------|--------------|
|--------------------------------------------------|--------------|
|-99---77---55--------------------99--1111--1212---|-55555555--3--|
|-xx---xx---xx--7p0-9p0-10p0h9p0--xx--x-x---x-x----|-55555555--3--|
|-77---55---33--------------------77--9-9---1010---|-33333333--1--|
|--------------------------------------------------|--------------|[/tab]

[tab]At the End of the Verse
Violin
|--17h19p17h19p17-------------------------------------------------|
|-----------------19-18-------------------------------------------|
|-----------------------20-19-20~\--------------------------------|
|-----------------------------------------------------------------|
|-----------------------------------------------------------------|
|-----------------------------------------------------------------|[/tab]


[tab]Chorus
Guitar I 2x “Yeah…”
|-------------------------------------------------------|---------------|
|-------------------------------------------------------|---------------|
|-1616161616161616-1515151515151515---------------------|---------------|
|-x-x-x-x-x-x-x-x--x-x-x-x-x-x-x-x---66666666-88888888--|--7----5--4----|
|-1414141414141414-1313131313131313--66666666-88888888--|--7----5--4----|
|------------------------------------66666666-88888888--|--7----5--4----|[/tab]

[tab]Guitar II 2x “Yeah”
|---------------------------------------------------------------------|---------------|
|---------------------------------------------------------------------|---------------|
|-1616161616161616-1515151515151515-1414141414141414-1313131313131313-|---------------|
|-x-x-x-x-x-x-x-x--x-x-x-x-x-x-x-x--x-x-x-x-x-x-x-x--x-x-x-x-x-x-x-x--|--7----5--4----|
|-1414141414141414-1313131313131313-1212121212121212-111111111111111--|--7----5--4----|
|---------------------------------------------------------------------|--7----5--4----|[/tab]

[tab]Violin
|-19~--------------18~--------------17~--------------16~--------12/---|
|---------------------------------------------------------------------|
|---------------------------------------------------------------------|
|---------------------------------------------------------------------|
|---------------------------------------------------------------------|
|---------------------------------------------------------------------|[/tab]

[tab]|-19~--------------18~--------------17~--------------19~--------------|------------------------------|
|------------------------------------------------------------------19-|-17~--------------------------|
|---------------------------------------------------------------------|---------16-15----15-14-------|
|---------------------------------------------------------------------|---------------16-------14-13-|
|---------------------------------------------------------------------|------------------------------|
|---------------------------------------------------------------------|------------------------------|[/tab]

[tab]Verse II
Guitar I
|------------------------------------------------------------------------------|
|------------------------------------------------------------------------------|
|--16tb----------16tb----20tb---------15tb-----------151515151717171718181818--|
|----------15tb------------------15tb--------15151515--------------------------|
|------------------------------------------------------------------------------|
|------------------------------------------------------------------------------|[/tab]

[tab]Guitar II
|-----------------------------------------------------------------|
|-----------------------------------------------------------------|
|--17tb----19tb----------20tb----------17tb--2020202022222222-----|
|------------------19tb---------17tb-------------------------/----|
|------------------------------------------------------------/----|
|------------------------------------------------------------/----|[/tab]

[tab]Then Guitars I and II
|------------------------------------------------------------|
|------------------------------------------------------------|
|------10-10------12-12-------10-10--------------------------|
|-3-3--x--x--3-3--x--x---3-3--x--x---8~-----7~---------------|
|-3-3--8--8--3-3--10-10--3-3--8--8---8~-----7~---------------|
|-3-3--------3-3---------3-3---------8~-----7~---------------|[/tab]

[tab]|------------------------------------------------------------|
|------------------------------------------------------------|
|-55555555-77777777-1010101010101010-1212121212121212--------|
|-xxxxxxxx-xxxxxxxx-x-x-x-x-x-x-x-x--x-x-x-x-x-x-x-x----7~---|
|-33333333-55555555-8-8-8-8-8-8-8-8--1010101010101010---7~---|
|-------------------------------------------------------7~---|[/tab]

Repeat Chorus

Solo

[tab]|Guitar I (4x)
|-----------------------------------------------------------------------------------|
|----------------------11-12-11----------------------------11-12-11-----------------|
|----------------11-12----------12-11----------------11-12----------12-11-----------|
|-12-11----11-12----------------------12-11----11-12----------------------12-11-----|
|-------12----------------------------------12----------------------------------12--|
|-----------------------------------------------------------------------------------|[/tab]
|
|
[tab]|------------------------------------------------|
|--------------11-12-11--------------------------|
|--------11-12----------12-11--------------------|
|--11-12----------------------12-11-11-------11--|
|--------------------------------------12-11-----|
|------------------------------------------------|[/tab]

Guitar II is silent


[tab]|Guitar III
|------------------------------------------------------------------------|
|------------------------------------------------------------------------|
|------------------------------------------------------------------------|
|-5~-------5.-------5~-------5.-------5~---------------5~----------------|
|-5~-------5.-------5~-------5.-------5~---------------5~----------------|
|-5~-------5.-------5~-------5.-------5~---------------5~----------------|[/tab]


Then there’s the Harmony part, play it four times:

[tab]|Guitar I
|----------------------11-12-11----------------------------11-12-11------------------|
|----------------11-12----------12-11----------------11-12----------12-11------------|
|-12-11----11-12----------------------12-11----11-12----------------------12-11------|
|-------12----------------------------------12----------------------------------12---|
|------------------------------------------------------------------------------------|
|------------------------------------------------------------------------------------|[/tab]


[tab]|--------------11-12-11--------------------------|
|--------11-12----------12-11--------------------|
|--11-12----------------------12-11-11-------11--|
|--------------------------------------12-11-----|
|------------------------------------------------|
|------------------------------------------------|[/tab]


[tab]|Guitar II
|----------------------15-16-15----------------------------15-16-15-----------------|
|----------------15-16----------16-15----------------15-16----------16-15-----------|
|-16-15----15-16----------------------16-15----15-16----------------------16-15-----|
|-------16----------------------------------16----------------------------------16--|
|-----------------------------------------------------------------------------------|
|-----------------------------------------------------------------------------------|[/tab]

[tab]|-------------15-16-15---------------------------|
|-------15-16----------16-15---------------------|
|-15-16----------------------16-15-15-------15---|
|-------------------------------------16-15------|
|------------------------------------------------|
|------------------------------------------------|[/tab]

[tab]|Guitar III
|----------------------------------------------|
|----------------------------------------------|
|----------------------------------------------|
|-00000000-55555555-1010101010101010-5555-4444-|
|-00000000-55555555-1010101010101010-5555-4444-|
|-00000000-55555555-1010101010101010-5555-4444-|[/tab]



[tab]Re-entry
Guitars I and II
|-----------------------------------------------------------------|
|-----------------------------------------------------------------|
|-----------------------------------------------------------------|
|-xxxxxxxxxxxxxxxxxxxxxxxxxxxxxxxxxxxxxxxxxxxxxxxxxxxxxxxxxxxxxxx-|
|-xxxxxxxxxxxxxxxxxxxxxxxxxxxxxxxxxxxxxxxxxxxxxxxxxxxxxxxxxxxxxxx-|
|-xxxxxxxxxxxxxxxxxxxxxxxxxxxxxxxxxxxxxxxxxxxxxxxxxxxxxxxxxxxxxxx-|[/tab]

[tab]Violin
|-----------------------------------------------------------------|
|-8-7-8-10-8-10-12-10-8-----10-8-7--------------------------------|
|-----------------------9~---------9~-----------------------------|
|-----------------------------------------------------------------|
|-----------------------------------------------------------------|
|-----------------------------------------------------------------|[/tab]


Repeat Chorus

[tab]Outro
Both Guitars
|----------------------------------|
|----------------------------------|
|-99---77---55---------------------|
|-xx---xx---xx--7p0-9p0-10p0h9p0-0-|
|-77---55---33-------------------0-|
|--------------------------------0-|[/tab]

And there you go.

*Please Rate*


Key
-----
PM - Palm Mute
. - Staccato Note
b - bend
d - Bend Down
x - Mute Note
t - trill picking