Civil War And Isolation Thirst

I Am Ghost

Album: We Are Always Searching
Genero: Pop

Tablatura (Ver letra)

                 Civil War and Isolation Thirst - I Am Ghost
------------------------------------------------------------------------
Tabbed by:Dru</3

Tuning:DADGBE

[tab]Intro:
Guitar 1: Distorted
e|----------------------------------------------------------------------|
B|----------------------------------------------------------------------|
G|----------------------------------------------------------------------|
D|--5~--pick scrape--x\\\----5555--8888--1111--3333---------------------|
A|--5~---------------x\\\----5555--8888--1111--3333---------------------|
D|--5~---------------x\\\----5555--8888--1111--3333---------------------|
| x4 | [/tab]

[tab]Guitar 2: Distorted
e|----------------------------------------------------------------------|
B|-----------333--6--554h5p4--------------------------------------------|
G|-0022322533---33-33-------3h5p3-2h3p2h3p2-----------------------------|
D|----------------------------------------------------------------------|
A|----------------------------------------------------------------------|
D|----------------------------------------------------------------------|[/tab]
[tab] x4
Guitar 1: Distorted
e|----------------------------------------------------------------------|
B|----------------------------------------------------------------------|
G|--000333222--5533---33322---33322-------------------------------------|
D|-----------33----111-----000------------------------------------------|
A|----------------------------------------------------------------------|
D|----------------------------------------------------------------------|[/tab]
[tab] x2
Guitar 2: Distorted
e|-------------11-------------------------------------------------------|
B|--111444333----44---44433---44433-------------------------------------|
G|-----------33----111-----000------------------------------------------|
D|----------------------------------------------------------------------|
A|----------------------------------------------------------------------|
D|----------------------------------------------------------------------|[/tab]
[tab] x2
Verse
Guitar 1: Distorted
e|----------------------------------------------------------------------|
B|----------------------------------------------------------------------|
G|----------------------------------------------------------------------|
D|--55555555--33333333--11111111--00000000------------------------------|
A|--55555555--33333333--11111111--00000000------------------------------|
D|--55555555--33333333--11111111--00000000------------------------------|
pm ........ ........ ........ ........ x2[/tab]

[tab]Guitar 2: Distorted
e|--6p5-6p5-865-6p5-6p5-865865108686------------------------------------|
B|-----8---6---6---8---6------------10----------------------------------|
G|----------------------------------------------------------------------|
D|----------------------------------------------------------------------|
A|----------------------------------------------------------------------|
D|----------------------------------------------------------------------|[/tab]
[tab] just solo with patterns similar to this one
Chorus
Guitar 1: Distorted
e|-------------------------|---------------------5~---------------------|
B|-------------------------|---------------------4~---------------------|
G|-------------------------|--------------------------------------------|
D|--5555--8888--1111--3333-|----------------0~--------------------------|
A|--5555--8888--1111--3333-|----------------0~--------------------------|
D|--5555--8888--1111--3333-|----------------0~--------------------------|[/tab]
[tab] | x4 |
Guitar 2: Distorted
e|----------------------------------------------------------------------|
B|--15151515\\13131313\\11111111---9--9---------------------------------|
G|--xxxxxxxxxxxxxxxxxxxxxxxxxxxx---7--7---------------------------------|
D|--12121212\\10101010\\\\\\8888----------------------------------------|
A|----------------------------------------------------------------------|
D|-------------------------------xx-xx----------------------------------|[/tab]

[tab]e|---------------------------------10-----------------------------------|
B|--15151515\\13131313\\11111111---9------------------------------------|
G|--xxxxxxxxxxxxxxxxxxxxxxxxxxxx---7------------------------------------|
D|--12121212\\10101010\\\\\\8888----------------------------------------|
A|----------------------------------------------------------------------|
D|-------------------------------xx-xx----------------------------------|[/tab]
[tab] then just repeat the intro riff x2
Verse 2 is the same as verse 1
Repeat Chorus
Bridge part 1
Guitar 1: Distorted
e|----------------------------------------------------------------------|
B|----------------------------------------------------------------------|
G|----------------------------------------------------------------------|
D|--5~----55------------------------------------------------------------|
A|--5~----55------------------------------------------------------------|
D|--5~----55------------------------------------------------------------|[/tab]

[tab]Guitar 2: Acoustic
e|----------5--5--5-6--6--6--6--6--6------------------------------------|
B|--8--8--8-------------------------------------------------------------|
G|---7--7--7-7--7--7-7--7--7--7--7--7-----------------------------------|
D|----5--5----5--5----5--5-----5--5-------------------------------------|
A|----------------------------------------------------------------------|
D|----------------------------------------------------------------------|[/tab]
[tab] x4
Bridge part 2
Both Guitars: Distorted
e|-------------------------|---------------|------------------------------|
B|-------------------------|---------------|------------------------------|
G|-------------------------|---------------|------------------------------|
D|--1111--3333--578-578----|---5-5-5-5-56--|------5~----------------------|
A|--1111--3333--578-578----|---5-5-5-5-56--|------5~----------------------|
D|--1111--3333--578-578----|---5-5-5-5-56--|------5~----------------------|
x4 | x4 |[/tab]

Then Repeat Chorus and Song Ends with Guitar 2 Playing Acoustic Part of the Bridge

| / slide up
| \ slide down
| h hammer-on
| p pull-off
| ~ vibrato
| + harmonic
| x Mute note