Burn The Bodies To The Ground

I Am Ghost

Album: Those We Leave Behind
Genero: Pop

Tablatura (Ver letra)

I AM GHOST - BURN THE BODIES TO THE GROUND
TABBED BY GEORGE WILLIAMS
DROPPED C TUNING (CGCFAD)

err workin my way through through the album, and this was a request, so i
did it. i've moved onto the drop C songs now, so re-tune your guitar..
its not hard at all, but sounds quite good. so go for it.
comment with any corrections you have.
cheeeers.
oh and have a look at my other i am ghost tabs (Y) good lad.

legend:

| b bend
| r return
| / slide up
| \ slide down
| h hammer on
| p pull off
| * pinch harmonic
| ~ tremolo
| ... palm muted
| x muted note
| (n) optional note
| tp tremolo picked
| == hold bend


INTRO:

[tab]|-------------------------------------------------------------------------|
|-------------------------------------------------------------------------|
|--------------------------------------------------------10-----9---------|
|-------7h8p7---7-------7h10p7---7-------7h8p7---7------------------10----|
|-------------8----------------8---------------8--------------------------|
|-0-0-0-----------0-0-0------------0-0-0-----------0-0-0----0-0---0----0--|[/tab]


VERSE:

[tab]|----------------------------------|-8--8-8-8-8/11--11-11-11-11-|
|----------------------------------|-x--x-x-x-x--x---x--x--x--x-|
|----------------------------------|-5--5-5-5-5/-8---8--8--8--8-|
|----------------------------------|----------------------------|
|----------------------------------|----------------------------|
|-0-0-7-7-8-8-5-5-7-7-3-3-5-5-2-2--|----------------------------|
play 3 times[/tab]

[tab]|----------------------------------|-8--8-8-8-8/6--6-6-6-6--|
|----------------------------------|-x--x-x-x-x-x--x-x-x-x--|
|----------------------------------|-5--5-5-5-5/3--8-8-8-8--|
|----------------------------------|------------------------|
|----------------------------------|------------------------|
|-0-0-7-7-8-8-5-5-7-7-3-3-5-5-2-2--|------------------------|
play 3 times[/tab]


CHORUS:

[tab]|-------------------------------------------------|
|-------------------------------------------------|
|-19-19-19-19-19-19-19-19-22-22-22-21-21-21\17-17-|
|--x--x--x--x--x--x--x--x--x--x--x--x--x--x--x--x-|
|-17-17-17-17-17-17-17-17-20-20-20-19-19-19\15-15-|
|-------------------------------------------------|[/tab]

[tab]|-------------------------------------------------|
|-------------------------------------------------|
|-19-19-19-19-19-19-19-19-15-15-15-15-17-17-17-17-|
|--x--x--x--x--x--x--x--x--x--x--x--x--x--x--x--x-|
|-17-17-17-17-17-17-17-17-13-13-13-13-15-15-15-15-|
|-------------------------------------------------|[/tab]

[tab]|-------------------------------------------------|
|-------------------------------------------------|
|-19-19-19-19-19-19-19-19-22-22-22-21-21-21\17-17-|
|--x--x--x--x--x--x--x--x--x--x--x--x--x--x--x--x-|
|-17-17-17-17-17-17-17-17-20-20-20-19-19-19\15-15-|
|-------------------------------------------------|[/tab]

[tab]|-------------------------------------------------|
|-------------------------------------------------|
|-15-15-15-15-15-15-15-15-17-17-17-17-18-18-18-18-|
|--x--x--x--x--x--x--x--x--x--x--x--x--x--x--x--x-|
|-13-13-13-13-13-13-13-13-15-15-15-15-16-16-16-16-|
|-------------------------------------------------|[/tab]


>REPEAT VERSE<
>REPEAT CHORUS<
>REPEAT CHORUS<


BRIDGE:

[tab]|-------------------------------------------------|
|----11----13----11----13----11----13----11----10-|
|-10----10----10----10----10----10----10----10----|
|-------------------------------------------------|
|-------------------------------------------------|
|-------------------------------------------------|[/tab]

[tab]|----------------------------------------------------------|
|----------------------------------------------------------|
|-10-10-10-10-10-10-10-10--7-7-7-7-7-7-7-7-5-5-5-5-5-5-5-5-|
|--x--x--x--x--x--x--x--x--x-x-x-x-x-x-x-x-x-x-x-x-x-x-x-x-|
|--8--8--8--8--8--8--8--8--5-5-5-5-5-5-5-5-3-3-3-3-3-3-3-3-|
|----------------------------------------------------------|[/tab]

[tab]|-------------------------------------------------|
|----11----13----11----13----11----13----11----10-|
|-10----10----10----10----10----10----10----10----|
|-------------------------------------------------|
|-------------------------------------------------|
|-------------------------------------------------|[/tab]

[tab]|----------------------------------------------------------|
|----------------------------------------------------------|
|-10-10-10-10-10-10-10-10--7-7-7-7-7-7-7-7-5-5-5-5-5-5-5-5-|
|--x--x--x--x--x--x--x--x--x-x-x-x-x-x-x-x-x-x-x-x-x-x-x-x-|
|--8--8--8--8--8--8--8--8--5-5-5-5-5-5-5-5-3-3-3-3-3-3-3-3-|
|----------------------------------------------------------|[/tab]

[tab]|-------------------------------------------------|
|----11----13----11----13----11----13----11----10-|
|-10----10----10----10----10----10----10----10----|
|-------------------------------------------------|
|-------------------------------------------------|
|-------------------------------------------------|[/tab]

[tab]|----------------------------------------------------------|
|----------------------------------------------------------|
|-10-10-10-10-10-10-10-10--7-7-7-7-7-7-7-7-5-5-5-5-5-5-5-5-|
|--x--x--x--x--x--x--x--x--x-x-x-x-x-x-x-x-x-x-x-x-x-x-x-x-|
|--8--8--8--8--8--8--8--8--5-5-5-5-5-5-5-5-3-3-3-3-3-3-3-3-|
|----------------------------------------------------------|[/tab]

[tab]|-------------------------------------------------|
|----11----13----11----13----11----13----11----10-|
|-10----10----10----10----10----10----10----10----|
|-------------------------------------------------|
|-------------------------------------------------|
|-------------------------------------------------|[/tab]

[tab]|------------------------------------------|
|------------------------------------------|
|------------------------------------------|
|---------7h8-5h7-3h5---------/10-10-10-10-| x 2
|------------------------------------------|
|-0-0-0-0-------------0-0-0-0--------------|[/tab]

[tab]|----------------------------|
|----------------------------|
|-3-3-3-3-3-3-3-3-5555555-6\-|
|-x-x-x-x-x-x-x-x-xxxxxxx-x--|
|-1-1-1-1-1-1-1-1-3333333-4\-|
|----------------------------|[/tab]

>REPEAT CHORUS<
>REPEAT CHORUS<
>REPEAT INTRO<


ENDING:

[tab]|------------------------------|------------------------------|
|------------------------------|------------------------------|
|------------------------------|------------------------------|
|-12-0-0-10-0-0-15-0-14-0-12-0-|-12-0-0-10-0-0-15-0-14-0-17-0-| x 4
|------------------------------|------------------------------|
|------------------------------|------------------------------|[/tab]

[tab]|-----------|
|-----------|
|-12-12-12\-|
|-13-13-13\-| on the fourth time through, end with this.
|-----------|
|-----------|[/tab]

and thats it.
only like 2 songs to go, so nearly there..