Beyond The Hourglass

I Am Ghost

Genero: Pop

Tablatura

Song: Beyond the Hourglass
Artist: I am Ghost
Album: Lovers’ Requiem
Tuning: Drop C (CGCFAD)

Hello, this tab took a while. Such a long solo...
It’s probably 95%+ right, since it’s all by ear. I’ll take any comments or corrections.

[tab]INTRO
3x
|-----0-------0-------0-------0-------0-------0-------0-------0------|
|---1---1---1---1---1---1---1---1---1---1---1---1---1---1---1---1----|
|-2-------2-------2-------2-------0-------0-------0-------0----------|
|--------------------------------------------------------------------|
|--------------------------------------------------------------------|
|--------------------------------------------------------------------|[/tab]

[tab]|-----0-------0-------0-------0-------0-------0-------0-------0------|
|---1---1---1---1---1---1---1---1---1---1---1---1---1---1---1---1----|
|-2-------2-------2-------2------------------------------------------|
|---------------------------------3-------3-------3-------3----------|
|--------------------------------------------------------------------|
|--------------------------------------------------------------------|[/tab]

[tab]CHORUS
Guitar I and II (No Violin)
|-------------------------------------------------------------------------|
|-------------------------------------------------------------------------|
|----------------------------------------------------------3-------5----7-|
|-7777777777777777-5555555555555555-0000000000000000----------------------|
|-7777777777777777-5555555555555555-0000000000000000-00-00---00-00---00---|
|-7777777777777777-5555555555555555-0000000000000000-00-00---00-00---00---|[/tab]

[tab]|------------------------------------------------------------------------|
|------------------------------------------------------------------------|
|------------------------------------------------------------------------|
|-7777777777777777-5555555555555555-0000000000000000-33333333-55555555-7-|
|-7777777777777777-5555555555555555-0000000000000000-33333333-55555555-7-|
|-7777777777777777-5555555555555555-0000000000000000-33333333-55555555-7-|[/tab]


[tab]RE-ENTRY (Guitar II only, lead guitar and violin come in at 3rd time)
3x 4th time
|--------------------------------|-------------------------------------|
|--------------------------------|-------------------------------------|
|--------------------------------|--------------4-4-4-4----------------|
|---------------------2h3-2------|--------------4-4-4-4----------------|
|-2-0-2-3--0-3-5--0-3-------3-2--|-2-0-2-3--0-3-2-2-2-2----------------|
|--------------------------------|-------------------------------------|[/tab]



[tab]VERSE
Lead and Violin 2x
|-------------------------------------------------------------------------|
|-------------------------------------------------------------18181818----|
|-14--9--10--17----14--9--10--17----14--15--17--19----15--17--x-x-x-x-----|
|-x---x--x---x-----x---x--x---x-----x---x---x---x-----x---x---15151515----|
|-12--7--8---15----12--7--8---15----12--13--15--17----13--15--------------|
|-------------------------------------------------------------------------|
The Violin should use the top note of the octave [/tab]

[tab]Rhythm 2x
|---------------------------------------------------|
|---------------------------------------------------|
|-7777-----------10101010-7777-----------10101010---|
|-7777-7777-8888-10101010-7777-7777-8888-10101010---|
|-5555-7777-8888-8-8-8-8--5555-7777-8888-8-8-8-8----|
|------7777-8888---------------7777-8888------------|[/tab]

[tab]|-----------------------------------------------------|
|-----------------------------------------------------|
|-----------------------------------1212121212121212--|
|-5555-7777-8888-10101010-7777-8888-1212121212121212--|
|-5555-7777-8888-10101010-7777-8888-1010101010101010--|
|-5555-7777-8888-10101010-7777-8888-------------------|[/tab]


Repeat Chorus




[tab]Break
Guitar (comes in at 2:10) 3x
|----------------------------------------------------------------------------------------------|
|----------------------------------------------------------------------------------------------|
|----------10-9-7-----------------------------------------7--10-9-7------9-7-------------------|
|-7-9-10----------10-9----7-9-10---10p9p7-10p9p7---7-9-10-----------10-9-----10-9--------------|
|----------------------10---------------------------------------------------------10--8-7-5--7-|
|----------------------------------------------------------------------------------------------|[/tab]


Repeat RE-ENTRY
Repeat CHORUS


[tab]BREAKDOWN
Rhythm Guitar Only
|------------------------------------|
|------------------------------------|
|------------------------------------|
|------------------------------------|
|-7--777-7--7777777-7--777-7-7777777-|
|-7--777-7--7777777-7--777-7-7777777-|[/tab]

[tab]Then both Guitars
|------------------------------------------------------------------------------------------------|
|------------------------------------------------------------------------------------------------|
|------------------------------------------------------------------------------------------------|
|------------------------------------------------------------------------------------------------|
|-777777-7--777-7--777777-555555-5--555-5--555555-000000-0--000-0--000000-333333-3-333333-555555-|
|-777777-7--777-7--777777-555555-5--555-5--555555-000000-0--000-0--000000-333333-3-333333-555555-|
PM|--- - --- - ------ ------ - --- - ------ ------ - --- - ------ ------ - ------ ------[/tab]

[tab]|-------------------------------------------------------------------------------------------|
|-------------------------------------------------------------------------------------------|
|-------------------------------------------------------------------------------------------|
|-------------------------------------------------------------------------------------------|
|-777777-7--777-7--777777-555555-5--555-5--555555-00000000000000000000000-33333333-55555555-|
|-777777-7--777-7--777777-555555-5--555-5--555555-00000000000000000000000-33333333-55555555-|
PM|--- - --- - ------ ------ - --- - ------ ----------------------- -------- --------[/tab]



SOLO

[tab]Rhythm Guitar - the whole way through
|----------------------------------------------------------------------|
|----------------------------------------------------------------------|
|----------------------------------------------------------------------|
|-7777777777777777-5555555555555555-0000000000000000-33333333-55555555-|
|-7777777777777777-5555555555555555-0000000000000000-33333333-55555555-|
|-7777777777777777-5555555555555555-0000000000000000-33333333-55555555-|[/tab]

[tab]Guitar Solo
| Guitar I
|------------------------------------------------------------------|
|------------------------------------------------------------------|
|------------------------------------------------------------------|
|-7h9--p7-9p7h10p7-9p7-9p7h10p7--9h10--p9-10p9h12p9-10p9-10p9h12p9-|
|------------------------------------------------------------------|
|------------------------------------------------------------------|[/tab]

[tab]|---------------------------------------------------------------------------------------------|
|---------------------------------------------------------------------------------------------|
|---------------------------------------------------------------------------------------------|
|-14p12p10-12p10p9-10p9p7-8p7p5-9-/10---10p9p7--7-9-7----7------------------------------------|
|-----------------------------------------------------10---10--9h10p9-7h9p7-5h7p5-3h5p3-2h3p2-|
|---------------------------------------------------------------------------------------------|[/tab]

[tab]|--------------------------------------19--19-20-19-17-----19-20-19-17--------------|
|----------------------------18-17--h18----------------17--------------17-----------|
|-------------------17-14-------------------------------------------------17-19b20--|
|----------17-14----------14--------------------------------------------------------|
|-14141414-------14-----------------------------------------------------------------|
|-----------------------------------------------------------------------------------|[/tab]

[tab]|-----------------------------------------------------------------------------------------|
|------------------------------16p15p13-15p13p12-13p12p10-12p10p9-------------------------|
|-20191720191719b---12h14h15----------------------------------------------------------14~-|
|-----------------------------------------------------------------12----------14h16h17----|
|---------------------------------------------------------------------14h16h17------------|
|-----------------------------------------------------------------------------------------|[/tab]

Violin Solo


Guitar and Violin Harmony

[tab]|-----------------------------88------1010------1212------1313------1515------17p15-----|
|--------------------------------1010------1212------1313------1515------1717-------17~-|
|-14~---/9----15b-15b~---/9-------------------------------------------------------------|
|---------------------------------------------------------------------------------------|
|---------------------------------------------------------------------------------------|
|---------------------------------------------------------------------------------------|[/tab]

[tab] Tapping here
|--------------------------------------------------------------------------------------|
|--------------------------------------------------------------------------------------|
|--------------------------------------------------------------------------------------|
|-t19p7p0t19p7p0t19p7p0t19p7p0t17p5p0t17p5p0t17p5p0t17p5p0t15p3p0t15p3p0t15p3p0t15p3p0-|
|--------------------------------------------------------------------------------------|
|--------------------------------------------------------------------------------------|[/tab]
|


[tab]|---------------------------------------------------------------------|
|---------------------------------------------------------------------|
|-13--14--15--16b--/17--14--14-16-17-16--14--16--12--12-14-16-14--12--|
|---------------------------------------------------------------------|
|---------------------------------------------------------------------|
|---------------------------------------------------------------------|[/tab]


[tab]|---------------------------------------------------------------------------|
|-----------------------------------------------------15-----17-15-13-------|
|-------------------------------------12--14----16-------16-----------15-14-|
|-15p12h15p12----15p12h15p12----12-15--------15----17-----------------------|
|-------------12-------------12---------------------------------------------|
|---------------------------------------------------------------------------|[/tab]


[tab]|------------------------------------------------------------------------------------------------|
|------------------------------------------------------------------------------------------------|
|-14-12-------14-12-------14-12-------14-12-------------11-12-------11-12-------11-12-------11-12|
|-------14----------14----------14----------14-------14----------14----------14----------14------|
|----------12----------12----------12----------12-12----------12----------12----------12---------|
|------------------------------------------------------------------------------------------------|[/tab]


[tab]|------------------------------------------888-------------------------------|
|-------------------------------888-101010-----101010-888--------------------|
|----------------777-999-101010---------------------------999-777------------|
|-777-999-101010--------------------------------------------------999-777----|
|-------------------------------------------------------------------------10-|
|----------------------------------------------------------------------------|[/tab]


[tab]Outro 4x
|------------------------------------------------------------------------------------------------|
|------------------------------------------------------------------------------------------------|
|------------------------------------------------------------------------------------------------|
|------------------------------------------------------------------------------------------------|
|-777777-7--777-7--777777-555555-5--555-5--555555-000000-0--000-0--000000-333333-3-333333-555555-|
|-777777-7--777-7--777777-555555-5--555-5--555555-000000-0--000-0--000000-333333-3-333333-555555-|
PM|--- - --- - ------ ------ - --- - ------ ------ - --- - ------ ------ - ------ ------[/tab]

And it ends with the Choir

And there you go.

*PLEASE RATE*

KEY--
--
PM = Palm Mute
h = hammer on
p = pull off
* = harmonic
/ = slide up
\ = slide down
x = mute note