What The World Will Never Take

Hillsong United

Genero: Pop

Tablatura

Intro/Verso
G|-------------------------------------------------------------|
D|-------------------------------------------------------------|
A|-----------55----55---------------55----55-------------------|
E|55---55----------------55----55------------------------------|

Pre-Coro
G|-------------------------------------------------------------------|
D|-------------------------------------------------------------------|
A|------99------55---------------------------------------------------|
E|55--------77------5555/7775---------------------------------------|

Coro
G|-------------------------------------------------------------------|
D|-------------------------------------------------------------------|
A|---------5555/9999------55-------------9999999999999999------555--|
E|55555555-----------7777----5-55555555-------------------7777----5-|


Puente (part 1)
G|-------------------------------------------------------------------|
D|-------------------------------------------------------------------|
A|12121212121212121212121212121212-----------------------------------|
E|-------------------------------------------------------------------|

Guitar Solo

Puente (part 2)
G|-------------------------------------------------------------------|
D|-------------------------------------------------------------------|
A|9999|11|8888------------------1313131313131313---------------------|
E|-------------5-5-5-5-77777777--------------------------------------|