Tu Mereces

Hillsong United

Genero:

Tablatura

Intro
------
------
--5---
--6---
------
--4---

---------------------
-9-11-13---11--14----
---------------------
---------------------
---------------------
---------------------

Verso:
Esta parte es facil
------------
-9----14----
------------
------------
------------
------------

se pone emocionante
---------------------------------------
-9-----9-----9----8-----8-----8--------
---8-8---8-8---8----8-8---8-8---8------
---------------------------------------
---------------------------------------
---------------------------------------

Pre-Coro
Esto parece un trabalenguas...
-----8---------------------------------
-------9-----11-9----8h9-----9---------
-8h10------8-------8------10---10------
---------------------------------------
---------------------------------------
---------------------------------------

Coro(Rasgeo):

-------------------------------------------
-14--13--11---14--13--9---14-13--11--14-16-
-13--13--8----13--13--8---13-13--8---13-14-
-------------------------------------------
-------------------------------------------
-------------------------------------------

Puente
Tocamos en el traste 11 en la cuerda "E"
y despues hacemos esto:

-8--9--4---
-----------
-----------
-----------
-----------
-----------

-----------
-13-14-11--
-----------
-----------
-----------
-----------

Instrumental antes del coro:
----------------------
-14--13----------13---
---------13--14-------
----------------------
----------------------
----------------------