Take It All

Hillsong United

Genero: Pop

Tablatura

BUENO AKI LES DEJO ESTA TRANSCRIBCION
A MI M GUSTA MAS K LA OTR VERSION Y LOS EFECTOS
K LES PUEDEN METER SN UN OVERDRIVE Y UN DELAY A 250ms
BUENO ESO ES TODO AHI LA KALIFICAN.


e:----------7----6---6-7/12-9-
B:-------0-7--0-7-0-7---------
G:----------------------------
D:----------------------------

e:------7----6----6/7---------
B:---0-7--0-7--0-7---9--------
G:----------------------------
D:----------------------------

e:----------7----6---6-7/12-9-
B:-------0-7--0-7-0-7---------
G:----------------------------
D:----------------------------

e:------7----6----6/7---------
B:---0-7--0-7--0-7---9--------
G:----------------------------
D:----------------------------

B
De todo lugar
Bb D#m
Los perdidos vendràn
B
En libertad
Bb D#m
A ti clamarán
B
Llevaste A cruz
Bb D#m
Moriste, vivo estas
B
E Dios
Bb D#m
A ti mi vida te daré

Guitarra: B B B Bb D#m
e:----------7----6---6-7/12-9-
B:-------0-7--0-7-0-7---------
G:----------------------------
D:----------------------------

e:------7----6----6/7---------
B:---0-7--0-7--0-7---9--------
G:----------------------------
D:----------------------------

e:----------7----6---6-7/12-9-
B:-------0-7--0-7-0-7---------
G:----------------------------
D:----------------------------

e:------7----6----6/7---------
B:---0-7--0-7--0-7---9--------
G:----------------------------
D:----------------------------


2ªParte:

B
Enviaste a jesus
Bb D#m
Por mi salvación
B
Por la eternidad
Bb D#m
En ti tengo perdon
B
Busque la verdad
B G#m
Y te encontre a ti
G#m
E Dios
E
A ti mi vida te daré

CORO:

B F#
Jesus por ti yo viviré
G#m E
De ti nunca me avergonzaré
B F#
Te doy todo lo que soy
C#m
Toma tomalo
C#m
Toma tomalo

SE REPITE LA CANCION DESDE LA 2DA. PARTE.
AKI SE HACE UNA PEKEÑA FIGURA

e:------------------
B:---12-14-16-17----
G:------------------
D:------------------

PUENTE:
C#m G#m
Eres el que vista
F# E
Al ciego das
C#m G#m F#
Brillas en la obscuridad
C#m G#m
La salvacion del mundo
F# E
En tus manos
B
Está. (2x)

Bajo: B B B Bb D#m

fin
C#m
Toma tomalo.
C#m
Toma tomalo
F#
Toma tomalo.


SALUDOS AL MINISTERIO DE ALABANZA DE LA IGLESIA
DEL SEÑOR ORIZABA BENDICIONES PARA TODOS.