Su Hijo Dio

Hillsong United

Album: Unidos Permanecemos
Genero: Pop

Tablatura (Ver letra)

ARMONICO: consiste en tokar la cuerda con la pua y al mismo tiempo
rosarla con tu dedo de esta forma se produce un sonido agudo q es
octava mas alta..!!

II Guitarra

toda esta parte se hace con armonicos
Fm C# A# D#
E----------------------------------------------------
A----------------------------------------------------
D----------------------------------------------------
G----------------------------------------------------
B--9-9-9-9-------9-9-9-9-----9-9-9-9-----8-9---------
e-------------------------------------------8-9------

esta parte tbm a exepcion del ultimo punteo
Fm C# A#
E----------------------------------------------------
A----------------------------------------------------
D----------------------------------------------------
G----------------------------------------------------
B-9-9-9-9-----9-9-9-9----9-9-9-9----8-9--------------
e--------------------------------------8-9-----------


antes de entrar al puente

E----------------------------------------------------
A----------------------------------------------------
D----------------------------------------------------
G------------------8-10-------8/10-------------------
B--11h13-13-13~--------9-11-8------------------------
e----------------------------------------------------