Solution

Hillsong United

Album: All of the Above
Genero: Rock

Tablatura (Ver letra)

VERSO 1 (It is not a human right......)
E|-----------------------------------------|
B|-----------------------------------------|
G|-------7-7-7-6-7-------6-6-6-------------|
D|-----------------------------9-7---------|
A|-9-7-9-----------7-7-7-------------------|
E|-----------------------------------------|

se repite (x4)


PRE CORO (Hey now fill our hearts...)
E|----------12----------------12-----------|
B|--10-9-10-----------10-9-10--------------|
G|-----------------------------------------|
D|-----------------------------------------|
A|-----------------------------------------|
E|-----------------------------------------|
X2
E|----------12--------10-10-9-9------------|
B|--10-9-10---------------------12-12-9-9--|
G|-----------------------------------------|
D|-----------------------------------------|
A|-----------------------------------------|
E|-----------------------------------------|



E|-----------------------------------------|
B|-----------------------------------------|
G|--------7-7-7-6-7-----------6-6-6-4------|
D|------------------------------------7----|
A|--9-7-9---------------7-5-7--------------|
E|-----------------------------------------| RAPIDO VA
AL VERSO 2
E|-----------------------------------------|
B|-----------------------------------------|
G|--------7-7-7-6-7-------6-6-6-4----------|
D|--4---4-----------4-4-4---------7--------|
A|----7------------------------------------|
E|-----------------------------------------|



VERSO 2 (It is not too far a cry too much...)
E|-----------------------------------------|
B|-----------------------------------------|
G|-----------------------------------------|
D|-----------------------------------------| X2
A|------------------5-X16------------------|
E|--5-X8----0-X8---------------------------|



PRE CORO (Hey now fill our hearts...)
E|----------12----------------12-----------|
B|--10-9-10-----------10-9-10--------------|
G|-----------------------------------------|
D|-----------------------------------------|
A|-----------------------------------------|
E|-----------------------------------------|
x2
E|----------12--------10-10-9-9------------|
B|--10-9-10---------------------12-12-9-9--|
G|-----------------------------------------|
D|-----------------------------------------|
A|-----------------------------------------|
E|-----------------------------------------|



CORO (ooh woh oh oh, God be the Solution)
E|--2-----------------------------2--------|
B|--3---------2-------------------3--------|
G|--2---------2---------1---------4--------| X2
D|------------2---------2---------4--------|
A|----------------------2---------2--------|
E|--------------------------------2--------|
D A E Bm

esto va antes de empezar el VERSO 3
E|-----------------------------------------|
B|-----------------------------------------|
G|-----------------------------------------|
D|---0-0-0-0-0-0-0-0--NO SE CUANTAS VECES--| "AL GALOPE"
A|----------------------ESCUCHAR-----------| TECNICA UP/DOWN
E|-----------------------------------------|



VERSO 3 (Higher than all circunstance...)
E|-----------------------------------------|
B|-----------------------------------------|
G|-----------------------------------------| X2
D|------------------0-X16------------------| "AL GALOPE"
A|--0-X8-----------------------------------| TECNICA UP/DOWN
E|----------0-X8---------------------------|



PRE CORO (Hey now fill our hearts...)



CORO (ooh woh oh oh, God be the Solution)
E|--2--------------------------2-----------|
B|--3--------2-----------------3-----------|
G|--2--------2--------1--------4-----------| X2
D|-----------2--------2--------4-----------| EN LA SGUNDA VEZ
A|--------------------2--------2-----------| CAMBIA EL Bm x F
E|-----------------------------2-----------|
D A E Bm


SOLO
E|-----------------------------------------|
B|---------------------9-9-9---------------|
G|-----------9----9-11-------11-9-11-------|
D|--11-11-11---11--------------------------|
A|-----------------------------------------|
E|-----------------------------------------|

E|-----------------------------------------|
B|---------------------12-12-12-10-9-10----|
G|-----------9----9-11---------------------|
D|--11-11-11---11--------------------------|
A|-----------------------------------------|
E|-----------------------------------------|



E|-----------------------------------------|
B|---------------------9-9-9---------------|
G|-----------9----9-11-------11-9-11-------|
D|--11-11-11---11--------------------------|
A|-----------------------------------------|
E|-----------------------------------------|

E|----------------12-12-12-10-9-9-UP1/2--9-|
B|12-12-12-10-9-9--------------------------|
G|-----------------------------------------| UP1/2
D|-----------------------------------------| BEND MEDIO TONO
A|-----------------------------------------|
E|-----------------------------------------|



PUENTE (Only you can mend the broken heart...)
E|--9------10-------9------7---------------|
B|----10-------10-----10-----9-------------|
G|-------9--------9------9-----9-----------| X8
D|-----------------------------------------| Guitarra
A|-----------------------------------------| limpia con delay
E|-----------------------------------------|
F#m D A E


CORO X2 (IGUAL QUE EN EL SEGUNDO CORO EN
LA ULTIMA VEZ EL "Bm" SE CAMBIA POR "F"
(esta parte va con la guitarra con delay, como campanas)


EL FINAL ES COMO EL SOLO (EN LA GUITARRA LIDER)


Espero que les guste, por ahí le erré en algo
cuando la transcribí, pero a mi me suena muy bien.
Cualquier duda o sugerencia a: dan_pinz@hotmail.com