So Will I 100 Billion X

Hillsong United

Album: Wonder
Genero: Pop

Tablatura (Ver letra)

So Will I (100 Billion X) - Hillsong United
Key of A (Original): CAPO 2 (All Tabs Relative to Capo)
Key of G: w/o Capo

[Intro]
E|---------------------------------|---------------------------------|
B|---5---5---5---5---5---5---5---5-|---8---8---8---8---7---7---7---7-|
G|---------------------------------|---------------------------------|
D|---------------------------------|---------------------------------|
A|-3---3---3---3---3---3---3---3---|-7---7---7---7---5---5---5---5---|
E|---------------------------------|---------------------------------|

[Verse]
E|---------------------------------|---------------------------------|
B|---5---5---5---5---5---5---5---5-|---8---8---8---8---7---7---7---7-|
G|---------------------------------|---------------------------------|
D|---------------------------------|---------------------------------| x3
A|-3---3---3---3---3---3---3---3---|-7---7---7---7---5---5---5---5---|
E|---------------------------------|---------------------------------|

E|---------------------------------|---------------------------------|
B|---5---5---5---5---5---5---5---5-|---3---3---3---3---7---7---7---7-|
G|---------------------------------|---------------------------------|
D|---------------------------------|---------------------------------|
A|-3---3---3---3---3---3---3---3---|-2---2---2---2---5---5---5---5---|
E|---------------------------------|---------------------------------|

[Verse 1]
C Em D C Em D
God of creation, there at the start, before the beginning of time
C
With no point of reference
Em D C G/B D
You spoke to the dark, and fleshed out the wonder of light

[Chorus]
G Em D
And as You speak, a hundred billion galaxies are born
G/B C
In the vapor of Your breath the planets form
Em C G
If the stars were made to worship, so will I
Em D
I can see Your heart in everything You've made
G/B C
Every burning star, a signal fire of grace
Em C G Em D G/B
If creation sings Your praises, so will I

[Verse 2]
C Em D C Em D
God of Your promise, You don't speak in vain, no syllable empty or void
C
For once You have spoken
Em D C G/B D
All nature and science follow the sound of Your voice

[Chorus 2]
G Em D
And as You speak, a hundred billion creatures catch Your breath
G/B C
Evolving in pursuit of what You said
Em C G
If it all reveals Your nature, so will I
Em D
I can see Your heart in everything You say
G/B C
Every painted sky, a canvas of Your grace
Em C
If creation still obeys You, so will I

[Pre-Bridge]
G Em D G/B C Em D C Em D
So will I, so will I

[PRE-BRIDGE] (Electric Guitar Solo)
e|------------------------|--------|------------------------|--------|
B|---0-------0-------0----|---0----|---0-------0-------0----|---0----|
G|-0---0-0-0---0-0-0---0-0|-0---0-0|-2---2-2-2---2-2-2---2-2|-0---0-0|
D|------------------------|--------|------------------------|--------|
G|------------------------|2-2-2-2-|0-0-0-0-0-0-0-0-0-0-0-0-|2-2-2-2-|
E|5-5-5-5-5-5-5-5-5-5-5-5-|--------|------------------------|--------|

(Before Singer)

e|----------------|--------|--------|
B|---0-------0----|---0----|---0----|
G|-0---0-0-0---0-0|-0---0-0|-2---2-2|
D|----------------|--------|--------|
G|3-3-3-3-3-3-3-3-|2-2-2-2-|0-0-0-0-|
E|----------------|--------|--------|

Repeat While Singing {BRIDGE}

[BRIDGE]
C Em D
If the stars were made to worship, so will I
C Em D
If the mountains bow in reverence, so will I
C Em D
If the oceans roar Your greatness, so will I
C Em D
For if everything exists to lift You high, so will I
C Em D
If the wind goes where You send it, so will I
C Em D
If the rocks cry out in silence, so will I
C Em D
If the sum of all our praises still falls shy
C Em D
Then we'll sing again a hundred billion times
C Em D C Em D
Whoa
C Em D
(All Band Jump In) (Instrumental 1x)

[Verse 3]
C
God of salvation
Em D C Em D
You chased down my heart through all of my failure and pride
C
On a hill You created
Em D C G/B D
The light of the world abandoned in darkness to die

[Chorus 3] (Repeat Electric Guitar Solo)
G Em D
And as You speak, a hundred billion failures disappear
G/B C
Where You lost Your life so I could find it here
Em C G
If You left the grave behind You, so will I
Em D
I can see Your heart in everything You've done
G/B C
Every part designed in a work of art called love
Em C G
If You gladly chose surrender, so will I
Em D
I can see in Your heart, eight billion different ways
G/B C
Every precious one, a child You died to save
Em C G
If You gave Your life to love them, so will I

(Acoustic Only)
Em D
Like You would again a hundred billion times
G/B C
But what measure could amount to Your desire
Em C G
You're the One who never leaves the one behind