Poderoso

Hillsong United

Genero:

Tablatura

Veanlo http://www.youtube.com/watch?v=RH3U50g4v-o&feature=related

INTRO: / F G C/E C /
VERSO 1
Fdd9 G C/E
Su amor me alcanzó
Fdd9 G C/E
En la cruz por mí murió
Fdd9 G Am
Mi pecado Él llevó
Fdd9 G F G C/E C
Con poder resucitó

Mientras toca el verso hace esto:
e|----------------------------------------------------
B|---13----13----13----13-------------13----13-----12-13|
G|-12----12----12----12----12-14-12-12-12-12--12-12-----|
D|------------------------------------------------------

e|-12--12--13-12--10--12----
B|---13--13-----13--13------
G|--------------------------

VERSO 2
Fdd9 G C/E
Sigues siendo siempre Fiel
Fdd9 G C/E
Mi Refugio mi Sostén
C F G Am7
Jesucristo es la Verdad
G F G C
Que me dio la libertad

Mientras toca el verso hace esto:
e|--5--7---------
B|-6--8--5--------
G|----------------x3

CORO
Mientras toca el coro hace esto
E|--------------------|
B|-1-1-0-3-1-1-0-3-1--|
G|--0-0-0---0-0-0-----|

C G
Poderoso Poderoso
Am F
Me libraste me salvaste
C G
Está escrito Has vencido
F G Fdd9 G-C
Cristo Tú Eres Señor

VERSO 3
Fdd9 G C
Sin principio Sin final
Fdd9 G C
Esperanza sin igual
Fdd9G Am
El perdido encontró
G F G C
En Jesús la salvación

CORO
SOLO: F Am G C/E C G G/B (Fdd9)

E|0-0-1-3-3-3-3-8-8-8-10-10-7-7-7-8-8-8s10-10-10s12-12-12-15-15-15
B|----------------------------------------------------------------
-13-13-13-13-13-13-12-13|
G|----------------------------------------------------------------

F Am
Que tu nombre sea exaltado
G C
Sea exaltado
G G/B
Sea exaltado

CORO
C G
Poderoso Poderoso
Am F
Me libraste me salvaste
C G
Está escrito Has vencido
F G F G F
Cristo Tú Eres Señor


En guitarra acústica tiene capo en el 5 traste
veanlo aqui http://www.youtube.com/watch?v=UzEg5dKpYMM