Para Ti Jesús

Hillsong United

Genero:

Tablatura

Para Ti Jesús
Hillsong United
ZION (2013)


Intro:
D F#m
e-------------------------|----------------------------------|
B-------------------------|----------------------------------|
G---7--7-7--7-7--7-7--7-7-|--11--11-11--11-11--11-11--11-11--|
D---7--7-7--7-7--7-7--7-7-|--11--11-11--11-11--11-11--11-11--|
A---5--5-5--5-5--5-5--5-5-|--9---9--9---9--9---9--9---9--9---|
E-------------------------|----------------------------------|

E D
e-------------------------|---------------------------|
B-------------------------|---------------------------|
G---9--9-9--9-9--9-9--9-9-|---7--7-7--7-7--7-7--7-7---|
D---9--9-9--9-9--9-9--9-9-|---7--7-7--7-7--7-7--7-7---|
A---7--7-7--7-7--7-7--7-7-|---5--5-5--5-5--5-5--5-5---|
E-------------------------|---------------------------|


Verso:
D A
Si fuera al fondo del mar ni ahi podria encontrar
F#m E
nada que a ti se pudiese igualar
D A
las estrellas y el sol cuentan de tu gran bondad
F#m E (D - E)
mil destellos de tu gloria el cielo reflejara


Coro: *en el coro pueden hacer Quintas,
D A personalmente uso estas.
Para ti, para ti es mi amor D5 A5 F#m E5
F#m e|----------------------|
el centro del corazón B|----------------------|
E G|---7------------------|
eres tu mi Jesús D|---7----7----4----2---|
D A|---5----7----4----2---|
junto a ti perdi el temor E|--------5----2----0---|
A
para ti es mi cancion
F#m
y con toda devoción
E D
cantare de tu amor... Junto a ti perdi el temor

Intro
Verso
Coro


Puente:
D5 C#5 B5 A5 E5 F#5 G#5
e--------------------- -----------------------|
B--------------------- -----------------------|
G---7-7--6-6--4-4--2-- --9-9-9-9-11-11-13-13--|
D---7-7--6-6--4-4--2-- x2 --9-9-9-9-11-11-13-13--|
A---5-5--4-4--2-2--0-- --7-7-7-7-9--9--11-11--|
E--------------------- -----------------------|

D A
nunca encontrare nadie igual a ti
F#m E (puedes hacer E5 en la segunda pasada)
tu luz brillara por la eternidad. (x2)


Coro: *en el coro pueden hacer Quintas,
D A personalmente uso estas.
Para ti, para ti es mi amor D5 A5 F#m E5
F#m e|----------------------|
el centro del corazón B|----------------------|
E G|---7------------------|
eres tu mi Jesús D|---7----7----4----2---|
D A|---5----7----4----2---|
junto a ti perdi el temor E|--------5----2----0---|
A
para ti es mi cancion
F#m
y con toda devoción
E D
cantare de tu amor... Junto a ti perdi el temor


(al final haces lo mismo que en la intro solo que
al final en lugar de hacer un D5 haces un D8)
Asi...:

D5 F#m5
e-------------------------|----------------------------------|
B-------------------------|----------------------------------|
G---7--7-7--7-7--7-7--7-7-|--11--11-11--11-11--11-11--11-11--|
D---7--7-7--7-7--7-7--7-7-|--11--11-11--11-11--11-11--11-11--|
A---5--5-5--5-5--5-5--5-5-|--9---9--9---9--9---9--9---9--9---|
E-------------------------|----------------------------------|

E5 D8
e-------------------------|---10--10-10--10-10--10-10--10-10---|
B-------------------------|---10--10-10--10-10--10-10--10-10---|
G---9--9-9--9-9--9-9--9-9-|---7---7--7---7--7---7--7---7--7----|
D---9--9-9--9-9--9-9--9-9-|---7---7--7---7--7---7--7---7--7----|
A---7--7-7--7-7--7-7--7-7-|------------------------------------|
E-------------------------|------------------------------------|

Espero que te haya servido, se que faltan algunos arreglos pero
hice lo que pude ... saludos desde Lima - Perú
*Iglesia Metodista de Pedregal*
todo sea para La Honra y Gloria de Dios nuestro Padre c:
si quieren contactarme al Facebook salgo como Pool Valverde Rodas.
Dios los Bendiga, cuidense CHAO *-*/