Freedom Is Here

Hillsong United

Genero: Rock

Tablatura

Kevin Ezequiel Aranda /
**********************************************************************
Hillsong United- Freedom is Here

intro:

e|---------------------------------------------------------|
B|-------10-----10-------10-----10---------10-----10-------|
G|-----9------9-----9--9------9------9---9------9------9---| x 5
D|---7------7------7-------------------9------9------9-----|
A|--------------------7-----7------7-----------------------|
E|---------------------------------------------------------|



Intro: D A E D /


e|---------------------12-12-------------------------------|
B|---------12-12-14-14-------------------------------------|
G|---------------------------14-14-11-11-11-11-11-11-11----|
D|---------------------------------------------------------|
A|---------------------------------------------------------|
E|---------------------------------------------------------|

e|---------------------12-12-------------------------------|
B|---------12-12-14-14-------14-14-12-12-12-12-12-12-12----|
G|---------------------------------------------------------|
D|---------------------------------------------------------|
A|---------------------------------------------------------|
E|---------------------------------------------------------|

e|---------------------12-12-------------------------------|
B|---------12-12-14-14-------------------------------------|
G|---------------------------14-14-11-11-11-11-11-11-11----|
D|---------------------------------------------------------|
A|---------------------------------------------------------|
E|---------------------------------------------------------|

e|---------------------12-12-------------------------------|
B|---------12-12-14-14-------14-14-12-12-12-12-12-12-12----|
G|---------------------------------------------------------|
D|---------------------------------------------------------|
A|---------------------------------------------------------|
E|---------------------------------------------------------|

e|---------------------12-12-------------------------------|
B|---------12-12-14-14-------------------------------------|
G|---------------------------14-14-11-11-11-11-11-11-11----|
D|---------------------------------------------------------|
A|---------------------------------------------------------|
E|---------------------------------------------------------|

Verso 1 -


D
el tiempo llega ya
A
tu palabra es real
E D
correremos hacia tu amor
D
hemos visto tu luz
A
que al mundo vida dio
E D
venimos ante tu amor

Pre Coro-


D
y yo no temblare
A E
esperare
E D
tu llegaras todo ya es realida.

Coro-


D
en mi ser
A E
al exaltar tu nombre
D
tu libertad crecera
D
en el mundo
A
al exaltarte
E
y cantar y cantar
E D A E
tu libertad esta aqui.


Verso 2-


D
los limites atras
A
sin el costo importar
E D
a tu llamado yo ire.
D
la meta alcanzare
A
y tu rostro vere
E D
desborda hoy tu poder.

Pre Coro-


D
y no me callare
A
no flaqueare
E D
tu llegaras
D
todo ya es realidad.


coro
D
en mi ser
A E
al exaltar tu nombre
D
tu libertad crecera
D
en el mundo
A
al exaltarte
E
y cantar y cantar
E D A E
// tu libertad esta aqui//

puente:
D
y no temere
A
no ocultare tu amor
E
tu amor
D
nunca lo hare
A
no negare tu amor
E
tu amor
E D
todo ya es realidad.


Final -

e|-------------------------------|
B|-14-14-14-14-14-12-12-12-12----|
G|-------------------------------| x 3
D|-------------------------------|
A|-------------------------------|
E|-------------------------------|

e|-------------------------------|
B|-14-14-14-14-14-15-14-12-------|
G|-------------------------14----|
D|-------------------------------|
A|-------------------------------|
E|-------------------------------|

e|-------------------------------|
B|-14-14-14-14-14-12-12-12-12----|
G|-------------------------------| x 3
D|-------------------------------|
A|-------------------------------|
E|-------------------------------|

e|-------------------------------|
B|-14-14-14-14-14-15-14-12-------|
G|-------------------------14----|
D|-------------------------------|
A|-------------------------------|
E|-------------------------------|

e|----------------17-16-14-------|
B|-14-14-14-14-14----------17----|
G|-------------------------------| x 3
D|-------------------------------|
A|-------------------------------|
E|-------------------------------|

e|-------------------------------|
B|-14-14-14-14-14-15-14----------|
G|----------------------16-14----|
D|-------------------------------|
A|-------------------------------|
E|-------------------------------|

e|----------------17-16-14-------|
B|-14-14-14-14-14----------17----|
G|-------------------------------| x 3
D|-------------------------------|
A|-------------------------------|
E|-------------------------------|

e|-------------------------------|
B|-14-14-14-14-14-15-14----------|
G|----------------------16-14-18-|
D|-------------------------------|
A|-------------------------------|
E|-------------------------------|

Improv-

e|-------12-----------12-----|------------------------------|
B|-12-14----14--12-14----12--|-12-10-9-10-------------------|
G|---------------------------|------------9-11------------9-|
D|---------------------------|------------------------------|
A|---------------------------|------------------------------|
E|---------------------------|------------------------------|

e|----------------------------9---|
B|-------------------------10-----|
G|-1/3-------6--------9---9-------|
D|--------------------------------|
A|--------------------------------|
E|--------------------------------|

Eso es una improvisacion si quieren como lo hace
hillsong solo escuchen la cancion
y hace esto:

e|---------------------------------------------------------|
B|-------10-----10-------10-----10---------10-----10-------|
G|-----9------9-----9--9------9------9---9------9------9---| Muchas veces
D|---7------7------7-------------------9------9------9-----|
A|--------------------7-----7------7-----------------------|
E|---------------------------------------------------------|

Cualquier duda con el Punteo miren este video :


Ending Part-
http://www.youtube.com/watch?v=mNvu-ptfwvI

Dios Los Bendiga.