For Who You Are

Hillsong United

Genero:

Tablatura

TABS.PARA GUITARRA
CANCION:
For who you are.( HILLSONG )
Intro/Verso (enmudece la cuerda de B):
---7------------------------------
--------0-0-0---0--0-0-0--0-0-0---
-8---8--------------------------8-
----------------------------------
----------------------------------
----------------------------------

---7------------------------------
--------0-0-0---0--0-0-0--0-0-0---
-9---9----------------------------
----------------------------------
----------------------------------
----------------------------------

PRE-Coro (con la palma de tu mano enmudece las cuerdas):
-----------------|-----------------
-------12-----12-|-------11-----11-
----13-----13----|----11-----11----
-13--------------|-11--------------
-----------------|-----------------
-----------------|-----------------

---------------|-----------------
-------9-----9-|-------11-----11-
----9-----9----|----11-----11----
-9-------------|-11--------------
---------------|-----------------
---------------|-----------------

-----------------|-----------------
-------12-----12-|-------11-----11-
----13-----13----|----11-----11----
-13--------------|-11--------------
-----------------|-----------------
-----------------|-----------------

-----------------------
-12--------------------
-9---(rasguear como acorde)
-9---------------------
-----------------------
-----------------------

Coro (rasguear las cuerdas en forma de acorde)
-7---7-7-7-------------
-7---5-4-5-(x2)--------
-4---4-4-4-------------
-----------------------
-----------------------
-----------------------
-6-------7-------------
-7-------5-------------
-6-------4-------------
-----------------------
-----------------------
-----------------------

Instrumental
----------------------------
----------------------------
-9-9-9-9s8-8--8s6-6--6s4-4-4
----------------------------
-7-7-7-7s6-6--6s4-4--4s2-2-2
----------------------------

-----------------------------
-----------------------------
-9-9-9-9s11-11-8s6-6--6s8-4-4
-----------------------------
-7-7-7-7s9--9--6s4-4--4s6-2-2
-----------------------------

--------------------------------
--------------------------12-14-
--------------------------------
-9s8--8--8-4-4-4----11s13-------
--------------------------------
-7s6--6--6-2-2-2----------------

-----------14----14-------------
-14b15-12-----12----11-12-------
--------------------------11-9-8
--------------------------------
--------------------------------
--------------------------------

Igual como en el otro tab.,
te envió un link para que lo copies y lo pegues en la barra de direcciones,
para que veas EL VIDEO y se te haga más fácil aprenderte la canción

Bendiciones, espero y te sea de gran ayuda.

http://www.youtube.com/watch?v=iWkodeMDxm4&mode=related&search=

Atte. EDUARDO GATICA RIOS ( LALO ).