Evermore

Hillsong United

Album: More Than Life
Genero: Rock

Tablatura (Ver letra)

Tabs:

Intro:
--------------------------------
-12-s8--7b8r7-----12-s8-7-------
--------------9-----------------
--------------------------------
--------------------------------
--------------------------------

Intro (2º intro) & Verso:
-------------10---10-|---7--------------
---8-------8----8----|-----8-7-8--7b8r7-
---------------------|-0----------------
-9----9-10-----------|------------------
---------------------|------------------
---------------------|------------------

-------------10---10-|---7---------------
---8-------8----8----|-----8-(7)---------
---------------------|-0---------(7)-----
-9----9-10-----------|---------------(7)-
---------------------|-------------------
---------------------|-------------------

(7) = armonicos

Precoro/Puente
---------------------------------
---------------------------------
-4---4---2---2---7---7---5---5---
---5---5---4---4---9---9---7---7-
---------------------------------
---------------------------------

Instrumental
----------------------|---7----7-------------
----10-8----10-8------|----8-----8---7-7b8r7-
--------------------9-|-7----7-----7---------
-10------10------10---|----------------------
----------------------|----------------------
----------------------|----------------------

----------------------|---7----7-----------
----10-8----10-8------|----8-----8---7b8r7-
--------------------9-|-7----7-----7-------
-10------10------10---|--------------------
----------------------|--------------------
----------------------|--------------------

Bendiciones

Fabian xD