Es Tiempo

Hillsong United

Genero: Pop

Tablatura

INTRODUCCION: F#5 E5 D5 E5 (pueden usar octavas)
e------7-9---7-9-------------
B-10-10----9-----7---10-9----
G-------------------------9--x2

SEGUNDA PARTE: D5-E5 C#5 D5 E5
G-7---9--6-(4-6)-7---9-----------
xD-------------------------------
A-5---7--4-------5---7-----------x2

TERCERA PARTE: /F#5 A5 D5 E5/ A5
e-------------------------------------------
B-12-(14)-10--9-12-14--9-12--14-10---9-12--(9)-10-10-
G---------------------------------------------
se queda en A

B-10-10-10-------------------
A5
/verso1: Amor inexplicable
F#m
Tu Vida diste en la cruz
D5 A5
Tuyo soy por siempre

e-----------------------------------
B---14--14---14---------------------
G-11--11--------10-12-14------------
D----------14-----------------------

B-10-10-10--------------------

A5
Verso2: Y En Tu Misericordia
F#m
Me diste vida diste amor

e-----------------------------------
B---14--14---14---------------------
G-11--11--------10-12-14------------
D----------14-----------------------

D5 A5
Tu gran Amor


e------9-10-------9.10------9-10.
B-9-10------10-12------9-10-----
G------------------------------- rasgueo en D8

E5 F#m E5-D5
Precoro: /Es tiempo de decidir por quien vivo
E5 F#m D8
Te seguiré, mi alabanza Te daré ¡Jesús!/

A5
Coro: /por TI por Ti Lo entrego todo
F#5 D5 desliz: C#8-B8-A8
Solo a Ti mi alabanza doy; toda mi alabanza doy
A5
Por Ti por Ti es por Quien vivo
F#5 D5 A5
Te alabaré con todo lo que soy;toda mi alabanza doy//

F#m D5 A5 (E) F#5
e-----------------------------------
B---14--14---14---------------------
G-11--11--------10-12-14------------
D----------14-----------------------


e------------------------------
B-14----15----14----10--9------
G------------------------------x2
F#5
Puente: /Tuyo soy Señor
B5 D5 A5 E E5
Vivo para darte gloria Dios gloria y honor/
/precoro + coro/

F#m D5 A5 (E) F#5
e---9---9---9------------------
B-7---7---5---10-12-14---------
G------------------------------
Fin en A

ACORDES 5:quintas 8:octavas
D8 E---10------| C#8 E---9-------|
B---10------| B---9-------|
G---7-------| G---6-------|
D---7-------| D---6-------|
xA----------- xA-----------

B8 E---7-------| A8 E---5-------|
B---7-------| B---5-------|
G---4-------| G---2-------|
D---4-------| D---2-------|
xA----------- A---0--------

BENDIONES Y QUE LES SIRVA. ESTOS SON LAS NOTAS ORIGINALES